ConnexionConnexionInscription
B E A D G
150 connectés Aller à Sweepyto Guitare

Red Hot Chili Peppers - Can't Stop [ Artiste ]

Publié par le
31/01/2011
50830 vues
Avancé 2
http://www.youtube.com/watch?v=j1yZnvtObqY
    
        

Info :
Le mix ne met pas en avant la basse, le son est même plutôt sourd, donc baissez les aigus.
Bon Slap !

Notation Slap :
T:Thumb = Pouce
P:Pop   = Tiré (index ou majeur)


INTRO (son de plus en plus fort)

G[---------------------------------[
D|---------------------------------| x6
A|-7-7-7-7-7-7-7-7-7-7-7-7-7-7-7-7-| 
E]---------------------------------]

G[---------------------------------[---------------------------------[
D|---------------------------------|---------------------------------|
A|-7-7-7-7-7-7-7-7-7-7-7-7-7-7-7-7-|-7-7-7-7-7-7-7-7-----------------|
E]---------------------------------]-----------------0-0-0-0-0-0-0-0-]
                                     T T T T T T T T T T T T T T T T

G[---------------------------------[---------------------------------[
D|---------------------------------|---------------------------------|
A|---------------------------------|---------------------------------|
E]---------------------------------]---------------------------------]


G[---------------------------------[---------------------------------[
D|---------------------------------|---------------------------------|
A|---------------------------------|---------------------------------|
E]---------------------------------]---------------------------------]


COUPLET 1

G[---------------------------------[
D|---------------------------------| x4
A|---------------------------------|
E]---------------------------------]
 

G[-----7---9---------7---9---X-----[-----7---9---------7---9---X-----[
D|---------------------------------|---------------------------------|
A|-7-----------7---7---X---X---7---|-5-----------5---5---X---X-------|
E]---------------------------------]-----------------------------5---]
   T   P   P   T   T P T P T P T     T   P   P   T   T P T P T P T

G[---------------------------------[---------------------------------[
D|-----9---9---------9---9---X-----|-----10--10--------10--10--X-----|
A|---------------------------------|-----------------------------5---|
E]-7-----------7---7---X---X---7---]-8-----------8---8---X---X-------]
   T   P   P   T   T P T P T P T     T   P   P   T   T P T P T P T

G[-----7---9---------7---9---X-----[-----7---9---------7---9---X-----[
D|---------------------------------|---------------------------------|
A|-7-----------7---7---X---X---7---|-5-----------5---5---X---X-------|
E]---------------------------------]-----------------------------5---]
   T   P   P   T   T P T P T P T    T   P   P   T   T P T P T P T

G[---------------------------------[---------------------------12--X-[
D|-----9---9---------9---9---X-----|-----10--10--------10--X---------|
A|---------------------------------|-------------------------10--X---|
E]-7-----------7---7---X---X---7---]-8-----------8---8---X-----------]
   T   P   P   T   T P T P T P T     T   P   P   T   T P T P T P T P

G[-----7---9---------7---9---X-----[-----7---9---------7---9---X-----[
D|---------------------------------|---------------------------------|
A|-7-----------7---7---X---X---7---|-5-----------5---5---X---X-------|
E]---------------------------------]-----------------------------5---]
   T   P   P   T   T P T P T P T     T   P   P   T   T P T P T P T

G[---------------------------------[---------------------------------[
D|-----9---9---------9---9---X-----|-----10--10--------10--10--X-----|
A|---------------------------------|-----------------------------5---|
E]-7-----------7---7---X---X---7---]-8-----------8---8---X---X-------]
   T   P   P   T   T P T P T P T     T   P   P   T   T P T P T P T

REFRAIN 1

G[---------------------------------[---------------------------------[
D|-------X-9-1012------------------|-9-------9---10----------X-0-1012|
A|-10------------------------------|-------12--12--------------------|
E]---------------------------------]---------------------------------]
   

G[---------------------------------[---------------------------------[
D|---------9-1012----------12------|-9-------9---10----------14--12--|
A|-10----10------------------------|-------12--12--------------------|
E]---------------------------------]---------------------------------]
   

G[---------------------------------[-------12------------------------[
D|---------9-1012------------------|-9---------9-10----------1012----|
A|-10------------------------------|---------------------------------|
E]---------------------------------]---------------------------------]
   

G[---------------------------------[---------------------------------[
D|---------9-1012----------12------|-9-------10----------------------|
A|-10------------------------------|---------------------------------|
E]---------------------------------]---------------------------------]
   

COUPLET 2

G[-----7---9---------7---9---X-----[-----7---9---------7---9---X-----[
D|---------------------------------|---------------------------------|
A|-7-----------7---7---X---X---7---|-5-----------5---5---X---X-------|
E]---------------------------------]-----------------------------5---]
   T   P   P   T   T P T P T P T     T   P   P   T   T P T P T P T

G[---------------------------------[-------------------12--X---11--X-[
D|-----9---9---------9---9---X-----|-----10--10----------------------|
A|---------------------------------|-----------------10--X---9---X---|
E]-7-----------7---7---X---X---7---]-8-----------8-------------------]
   T   P   P   T   T P T P T P T     T   P   P   T   T P T P T P T P

G[-----7---9---------7---9---X-----[-----7---9---------7---9---X-----[
D|---------------------------------|---------------------------------|
A|-7-----------7---7---X---X---7---|-5-----------5---5---X---X-------|
E]---------------------------------]-----------------------------5---]
   T   P   P   T   T P T P T P T     T   P   P   T   T P T P T P T

G[---------------------------------[---------------------------------[
D|-----9---9---------9---9---X-----|-----10--10--------10--10--X-----|
A|---------------------------------|-----------------------------5---|
E]-7-----------7---7---X---X---7---]-8-----------8---8---X---X-------]
   T   P   P   T   T P T P T P T     T   P   P   T   T P T P T P T

G[-----7---9---------7---9---X-----[-----7---9---------7---9---X-----[
D|---------------------------------|---------------------------------|
A|-7-----------7---7---X---X---7---|-5-----------5---5---X---X-------|
E]---------------------------------]-----------------------------5---]
   T   P   P   T   T P T P T P T     T   P   P   T   T P T P T P T

G[---------------------------------[---------------------------------[
D|-----9---9---------9---9---X-----|-----10--10--------14--12--------|
A|---------------------------------|---------------------------12----|
E]-7-----------7---7---X---X---7---]-8-----------8-------X---X---120-]
   T   P   P   T   T P T P T P T     T   P   P   T     P T P T P T T

G[-----7---9---------7---9---X-----[-----7---9---------7---9---X-----[
D|---------------------------------|---------------------------------|
A|-7-----------7---7---X---X---7---|-5-----------5---5---X---X-------|
E]---------------------------------]-----------------------------5---]
   T   P   P   T   T P T P T P T     T   P   P   T   T P T P T P T

G[---------------------------------[---------------------------------[
D|-----9---9---------9---9---X-----|-----10--10--------10--10--X-----|
A|---------------------------------|-----------------------------5---|
E]-7-----------7---7---X---X---7---]-8-----------8---8---X---X-------]
   T   P   P   T   T P T P T P T     T   P   P   T   T P T P T P T

REFRAIN 2

G[---------------------------------[-------12--12--------------------[
D|-------0-9-1012------------------|-9-------9---10----------1210-9--|
A|-10------------------------------|---------------------------------|
E]---------------------------------]---------------------------------]
   

G[---------------------------------[-------12------------------------[
D|-------0-9-1012------------------|-9-------9---10------14----12109-|
A|-10------------------------------|---------------------------------|
E]---------------------------------]---------------------------------]
   

G[---------------------------------[---------------------------------[
D|---------9-1012------------------|-9-------9-1210--------------9---|
A|-10----10------------------------|-------12----------------------12|
E]---------------------------------]---------------------------------]
   

G[---------------------------------[---------------------------------[
D|---------9-1012------------------|-9-------10----------------------|
A|-10------------------------------|---------------------------------|
E]---------------------------------]---------------------------------]
   

PONT

G[-----9---9-----------------------[-14------------------------------[
D|---------------------------------|-----12--0---12------------------|
A|-7-----------7-------------------|---------------------------------|
E]---------------------------------]---------------------------------]
   

G[---------------------------------[---------------------------------[
D|-----9---9-----------------------|-12--10------10------------------|
A|---------------------------------|---------------------------------|
E]-7-----------7-------------------]---------8-----------------------]
   

G[-----9---9-----------------------[-14------------------------------[
D|---------------------------------|-----12--0---12------------------|
A|-7-----------7-------------------|---------------------------------|
E]---------------------------------]---------------------------------]
   

G[---------------------------------[---------------------------------[
D|-----9---9-----------------------|-12--10------10------------------|
A|---------------------------------|---------------------------------|
E]-7-----------7-------------------]---------8-----------10------11--]
   

G[-----9---9-----------------------[-14------------------------------[
D|---------------------------------|-----12--0---12------------------|
A|-7-----------7-------------------|---------------------------------|
E]---------------------------------]---------------------------------]
   

G[---------------------------------[---------------------------------[
D|-----9---9-----------------------|-12--10------10------------------|
A|---------------------------------|---------------------1012--------|
E]-7-----------7-------------------]---------8-------------------1011]
   

G[-----9---9-----------------------[-14------------------------------[
D|---------------------------------|-----12--0---12------------------|
A|-7-----------7-------------------|---------------------------------|
E]---------------------------------]---------------------------------]
   

G[---------------------------------[---------------------------------[
D|-----9---9-----------------------|-12--10------10------------------|
A|---------------------------------|---------------------------------|
E]-7-----------7-------------------]---------8-----------------------]
   

SOLO DE BASSE

G[-----7---9---------7---9---X-----[-----7---9---------7---9---X-----[
D|---------------------------------|---------------------------------|
A|-7-----------7---7---X---X---7---|-5-----------5---5---X---X-------|
E]---------------------------------]-----------------------------5---]
   T   P   P   T   T P T P T P T     T   P   P   T   T P T P T P T

G[---------------------------------[-----------------------7---------[
D|-----9---9---------9---9---X-----|-----10--10--------7-9-----5-7-5-|
A|---------------------------------|---------------------------------|
E]-7-----------7---7---X---X---7---]-8-----------8-------------------]
   T   P   P   T   T P T P T P T     T   P   P   T   T P T P T P T

COUPLET 3

G[-----7---9---------7---9---X-----[-----7---9---------7---9---X-----[
D|---------------------------------|---------------------------------|
A|-7-----------7---7---X---X---7---|-5-----------5---5---X---X-------|
E]---------------------------------]-----------------------------5---]
   T   P   P   T   T P T P T P T     T   P   P   T   T P T P T P T

G[---------------------------------[-------------------12--X---14-X--[
D|-----9---9---------9---9---X-----|-----10--10----------------------|
A|---------------------------------|-----------------10--X---12--X---|
E]-7-----------7---7---X---X---7---]-8-----------8-------------------]
   T   P   P   T   T P T P T P T     T   P   P   T   T P T P T P T

G[-----7---9---------7---9---X-----[-----7---9---------7---9---X-----[
D|---------------------------------|---------------------------------|
A|-7-----------7---7---X---X---7---|-5-----------5---5---X---X-------|
E]---------------------------------]-----------------------------5---]
   T   P   P   T   T P T P T P T     T   P   P   T   T P T P T P T

G[---------------------------------[---------------------------------[
D|-----9---9---------9---9---X-----|-----10--10--------10--10--X-----|
A|---------------------------------|---------------------------------|
E]-7-----------7---7---X---X---7---]-8-----------8---8---X---X---8---]
   T   P   P   T   T P T P T P T     T   P   P   T   T P T P T P T

G[-----7---9---------7---9---X-----[-----7---9---------7---9---X-----[
D|---------------------------------|---------------------------------|
A|-7-----------7---7---X---X---7---|-5-----------5---5---X---X-------|
E]---------------------------------]-----------------------------5---]
   T   P   P   T   T P T P T P T     T   P   P   T   T P T P T P T

G[---------------------------------[---------------------------------[
D|-----9---9---------9---9---X-----|-----10--10--------10--10----5H7-|
A|---------------------------------|-------------------------5H7-----|
E]-7-----------7---7---X---X---7---]-8-----------8---8---X-----------]
   T   P   P   T   T P T P T P T     T   P   P   T   T P T P T   T

G[-----7---9---------7---9---X-----[-----7---9---------7---9---X-----[
D|---------------------------------|---------------------------------|
A|-7-----------7---7---X---X---7---|-5-----------5---5---X---X-------|
E]---------------------------------]-----------------------------5---]
   T   P   P   T   T P T P T P T     T   P   P   T   T P T P T P T

G[---------------------------------[---------------------------------[
D|-----9---9---------9---9---X-----|-----10--10--------10--10--X-----|
A|---------------------------------|-----------------------------5---|
E]-7-----------7---7---X---X---7---]-8-----------8---8---X---X-------]
   T   P   P   T   T P T P T P T     T   P   P   T   T P T P T P T

G[-----7---9---------7---9---X-----[-----7---9---------7---9---X-----[
D|---------------------------------|---------------------------------|
A|-7-----------7---7---X---X---7---|-5-----------5---5---X---X-------|
E]---------------------------------]-----------------------------5---]
   T   P   P   T   T P T P T P T     T   P   P   T   T P T P T P T

G[---------------------------------[---------------------------------[
D|-----9---9---------9---9---X-----|-----10--10--------10--10--X-----|
A|---------------------------------|-----------------------------5---|
E]-7-----------7---7---X---X---7---]-8-----------8---8---X---X-------]
   T   P   P   T   T P T P T P T     T   P   P   T   T P T P T P T

G[---------------------------------[---------------------------------[
D|---------------------------------|---------------------------------|
A|---------------------------------|---------------------------------|
E]---------------------------------]---------------------------------]
    
    

8 Commentaires

1 2 3 4 5
9 notes
Notes pour Can't Stop Basse Tab - (Red Hot Chili Peppers) | Slappyto : 4/5 sur 9 notes
#8
10/09/2012 21:00:39
Retirer
FunkMyBass

Nostalgie ! Une des premières chansons que j'avais apprise en slap =')

Par contre je la mettrais plutôt dans la catégorie de médiators orange, elle est quand même accessible à un débutant qui jouerait depuis un ou deux mois !

 
Entièrement d'accord. Si on est un débutant et qu'on a choppé le geste, elle est vraiment accessible. Dans la partie cours, j'ai eu vachement eu plus de mal a faire la ligne de Skinny Sweaty Man à la vitesse "live" (ça doit être autour de 160, et elle est en moyen 4)

http://www.slappyto.net/Cours-Basse/Voir-Cours-Basse.aspx?id=55
0
0
#7
15/01/2012 23:32:29

Nostalgie ! Une des premières chansons que j'avais apprise en slap =')

Par contre je la mettrais plutôt dans la catégorie de médiators orange, elle est quand même accessible à un débutant qui jouerait depuis un ou deux mois !

0
0
#6
22/12/2011 12:28:17
ça m'étonne pas donc. j'ai surtout bossé mais rythmique et pas trop ma dexterité   autant pour moi, c'est relatif le niveau de toute facon c'est bien comme ça donc  
0
0
#5
22/12/2011 12:14:57

Disons que le Slap semble facile sur can't Stop mais la mise en place rythmique est difficile (surtout la fin de riff). Je trouve Right On Time plus simple à ce niveau (c'est "juste" de la dextérité et de l'endurance à la main droite)

0
0
#4
22/12/2011 11:41:27
par exemple j'ai plus de mal à faire right on time qui est classée pareil donc apres ça vient peut-être de ce que j'ai dit plus bas je sais pas c'est juste mon constat perso  
0
0

En Live

Yaumegui et Hellohehehe ont commenté le topic [Fender Precision Custom Shop 55 sparkle- ETAT NEUF...] de yaumegui il y a 2 heures
Photoedge a commenté le topic [Potar tout ou rien] de photoedge il y a 5 heures
PatG a voté pour le message de katell29 il y a 5 heures
Pitiful et photoedge ont commenté le topic [Potar tout ou rien] de photoedge il y a 5 heures
Ray, Alina et 4strings2rock ont commenté le topic [Conseils achat deuxième basse] de Alina il y a 6 heures
Ray, pat, Mat 31, 4strings2rock et katell29 ont commenté le topic [Apprendre sur le tard...] de 4strings2rock il y a 6 heures
Krizz Mac Hell et pitiful ont commenté le topic [pontet sur mesure (Tbird)] de krizz Mac Hell il y a 7 heures
Pitiful a commenté le topic [Potar tout ou rien] de photoedge il y a 7 heures