ConnexionConnexionInscription
B E A D G
217 connectés Aller à Sweepyto Guitare

Chic - Good Times [ Artiste ]

Publié par le
21/11/2015
8353 vues
Moyen 3
http://www.youtube.com/watch?v=eKl6EZShaaw
    
        

*********************
* Chic : Good Times *
*********************

mesure = 4/4, tempo = 110, subdivision (-) = double-croche
suggestion de réglages :
    micro : 100% chevalet
    EQ = 50% bass / 100% mid / 50% treble

Intro :
 |:2x                                                               :|
G|----------------|----------------|----------------|----------------|
D|----------------|------------0-2-|----------------|----------------|
A|----------------|------0-2-4----0|----0---0---+--0|-090A-9-0---2---|
E|0---0---0---+--0|-02-3-----------|----------------|-----------3-32-|

Refrain :
 |:4x                                                               :|
G|----------------|----------------|----------------|----------------|
D|----------------|------------0-2-|----------------|----------------|
A|----------------|------0-2-4----0|----0---0---+--0|-090A-9-0---2---|
E|0---0---0---+--0|-02-3-----------|----------------|-----------3-32-|

Couplet :
 |:4x                                                               :|
G|----------------|----------------|----------------|----------------|
D|----------------|----------------|----------------|---------------H|
A|----------------|----------------|----------------|--------------57|
E|0---0---0---0--A|-00-0---0---0-30|5---5---5---5--0|5---5---5--05---|

Refrain
Couplet
Refrain

Finale :
 |:2x                               >                               :|
G|----------------|----------------|----------------|----------------|
D|----------------|------------0-2-|----------------|----------------|
A|----------------|------0-2-4----0|----0---0---+--0|-090A-9-0---2---|
E|0---0---0---+--0|-02-3-----------|----------------|-----------3-32-|

 

=========================================================================================================================
Légende : A = frette 10, B = frette 11, C = frette 12, ...
          + = étouffer la corde (stopper le son)
          H = Hammer On (de la note qui se trouve juste sous le H)
          |: Nx :| = répéter N fois le passage entre |: et :|
          > = en diminuant le volume
=========================================================================================================================

Visitez http://www.ilovetabs.com pour d'autres tablatures et partitions pour guitare basse.

    
    

1 Commentaire

1 2 3 4 5
1 note
Notes pour Good Times Basse Tab - (Chic) | Slappyto : 4/5 sur 1 note
#1
22/11/2015 13:23:58

  cool  merci  

 
0
0

En Live

Hmike et gozo ont commenté le topic [Echange WASHBURN/Status s1000 ] de gozo il y a 21 minutes
Grobass a commenté le topic [Association de Mots] de Claypool-Fish! il y a 2 heures
Norwood a commenté le topic [AER Basic performer 2 900€] de norwood il y a 3 heures
Sting49, tartine et guyal ont commenté le topic [Vos GAS du moment] de Miliouz il y a 6 heures
JimmyShelter vient tout juste de rejoindre la communauté Slappyto. Bienvenue ! il y a 8 heures
Guyal a voté pour le message de bass 30et1 il y a 8 heures