ConnexionConnexionInscription
B E A D G
137 connectés Aller à Sweepyto Guitare

Rancid - Maxwell Murder (solo [version 2])

Publié par le
10/08/2006
38415 vues
Avancé 4
Vitesse NormaleNormal speed Vitesse RalentieSlow down speed
G-5-5-----5-5-----5-5-----5-5-----5-5----------------------------------
D-----7-7-----7-7-----7-7-----7-7-----7-7-6-6-5-5-(3)-(3)--------------()=préférence
A-------------------------------------------------(8)-(8)-5-5-3-3-5-5--
E----------------------------------------------------------------------

G-------------------------5-5-----5-5-7-7-5-5--------------------------
D---------3-3-----3-3-5/7-----7-7-------------7-7-5-5-3-3-----3-3------
A-3-3-5-5-----5-5-----------------------------------------5-5----------
E----------------------------------------------------------------------

G------10-10-----10-10-12-12-10-10-----10-10-/-19-19-17-17-------------------------
D-10/12-----12-12-----------------12-12-------------------19-19-17-17-15-15--------
A--------------------------------------------------------------------------17-15-15
E------------------------------------------------------------------------------b--b

G---19---17---16---15---14\-------------------------------------------------
D-0----0----0----0----0-----------------------------------------------------
A----------------------------10(10)-8(8)-7(7)-8(8)-10(10)-8(8)-7(7)---------
E-------------------------------------------------------------------8-------
   Hey! nous voici avec une seconde version du fameux solo de Maxwell Murder, l'un des morceaux les plus connus du groupe de punk Rancid. J'ai du apprendre ce solo dans l'urgence d'un concert, et n'ayant pas eu le temps de m'attarder 2 heures sur le morceau pour décortiquer le solo a la moindre note, j'en avais pris la structure principale et essayé de refaire quelque chose s'y approchant au maximum. Voila le résultat que j'ai gardé pendant 1 an (durée de vie du groupe de punk avec lequel j'ai joué) étant donné son efficacité et sa (plus ou moins) facilité.

Bon je ne vais pas vous surprendre en vous disant que la difficulté du plan, c'est la vitesse! Eh bien si! vous devriez etre surpris! Etre rapide est une chose que tout le monde peut faire. Mais ici, la difficulté c'est de garder le rythme avec un batteur. J'ai pour cela séparer le solo en 4 parties logiques, pour que vous puissiez le bosser au métronome si ca vous chante!

L'objectif principal est d'aller vite, de doubler les notes le plus possible (pour donner l'illusion de 2000000 notes!), mais surtout de rester calé sur la batterie. Si vous avez Guitar Pro ou Beatcraft ou autre logiciel du genre, faites vous un riff batterie basique "poum tcha" a la punk, et jouez dessus, vous verrez, ca vient tout seul (apres l'écoute 3 ou 4 fois du solo original bien sur)

Faites bien attention au bon enchainement de tout, il faut que ca soit rapide, mais précis, au moindre pain, recommencez! même moi j'ai des difficultés quelques fois. Le punk est le punk certes, mais la il s'agit de Matt Freeman.

Les changements de position sur le manche doivent se faire naturellement et assez vite (a la maniere de Around The World (couplet))

A la fin, avant la descente, n'oubliez pas les bends sur les "15", ca fait classe .
ENFIN, les "0" pendant la descente sont a demi-sourd, a demi-palm-mutés ! je n'ai pas mis de X pour pas avoir de note morte ! car il ne s'agit pas de note morte, vous devez faire sonner la corde a vide mais l'étouffer juste apres, et les dernieres notes, peuvent etre doublés si vous le voulez, c'est une question de gout, moi j'ai préféré rester dans la descente simple qui annonce bien la reprise du refrain.


Voila! Sur ceux bon travail aux courageux, et désolé si j'ai éventuellement fait des fautes dans la Tab.
                                                                                              Martbas§

1 Commentaire

1 2 3 4 5
2 notes
Notes pour Maxwell Murder (solo [version 2]) - Rancid - Cours de basse vidéo | Slappyto : 3/5 sur 2 notes
#1
23/04/2012 21:21:45
je l'aurai mis dans le Avancé 2 ou 1 mais ça reste bon a entendre^^
0
0

En Live

LauFro vient tout juste de rejoindre la communauté Slappyto. Bienvenue ! il y a 23 heures
Khan, patb, Chirac et Bass13013 ont commenté le topic [Pat est décédé] de khan il y a 1 jour
Wario a commenté le topic [GL Kiloton US 890€] de Wario il y a 1 jour
Jaybignoise vient tout juste de rejoindre la communauté Slappyto. Bienvenue ! il y a 1 jour
Fathertom a commenté le topic [Combo hésitation] de Fathertom il y a 2 jours
Kensei vient tout juste de rejoindre la communauté Slappyto. Bienvenue ! il y a 3 jours
Jardinex vient tout juste de rejoindre la communauté Slappyto. Bienvenue ! il y a 4 jours
Vinceom vient tout juste de rejoindre la communauté Slappyto. Bienvenue ! il y a 4 jours