ConnexionConnexionInscription
B E A D G
127 connectés Aller à Sweepyto Guitare

Jamiroquai - Falling

Publié par le
30/03/2006
27698 vues
Débutant 4
Vitesse NormaleNormal speed Vitesse RalentieSlow down speed
G--------------------|--------5-------------|
D--------------------|-----------X----------|
A-----3-----3--------|--3--3-------X-5-5--5-|
E--0-----5-----5--5--|----------------------|

G------------------------|--------5------------|
D------------------------|----------X----------|
A-7-------3-----3--------|--3--3------X-5-5--5-|
E---0--0-----5-----5--5--|---------------------|

G-----------|--------------3-----|
D-----------|--------3-----------|
A-7---------|-----------1-----X--|
E---0--5-5--|--2--1--------------|

G-----------------5--------|------------------|
D-----7--------------------|----3-------2-----|
A--------X---2-3-----X-----|-------X-------X--|
E--5-------5-----------3-2-|-1-------0--------|

G--------------------------------|-----------3----|
D-----7----7-9-10-9-7-9-7--------|----3-----------|
A--------7----------------7------|------X-1-----X-|
E--5------------------------8-0--|-1--------------|

G---------------5--------|------------------|
D----7-------------------|----3-------2-----|
A-------X---2-3----X-----|-------X-------X--|
E-5-------5----------3-2-|-1-------0--------|

G--------------------------------|----------------|
D--------------------------------|----------------|
A-----3-----5-----5-----7--------|-3--3-----------|
E--5-----5-----5-----5-----8-7-5-|----------------|
Voilà un très bon groove distillé avec classe ! il n'y a pas de grosses difficultés au niveau du rythme ou des notes choisies, cependant si vous voulez que cela tourne il va falloir être très précis, les notes doivent êtres jouées très courtes, c'est à dire qu'il vous faudra les étouffer dès leur naissance, RRrrrrooo les pauvres ! et voui c'est la dure loi du groove lol ;-), je disais donc qu'il est important d'être précis en réspectant bien les notes mortes je ne le dirais jamais assez. Quand on écoute le morceau, l'entrée de la basse parait évidente cependant faites bien attention car la première note ( le MI corde à vide ) doit partir au bout de 2 temps 1/2 de façon à ce que la deuxième note ( un DO sur la corde de LA ) tombe pile sur le troisième temps, ensuite le riff coule tout seul, ou presque ;-) Encore un petit conseil, soyez attentif à la neuvième mesure, vous devez la travailler lentement et, selon votre interprétation, vous pouvez jouer la serie de notes sur la corde de RE en faisant des hammers et pullings pour vous simplifier la vie, c'est vous qui voyez ;-). Dernière petite astuce, écoutez bien la charley qui correspond à un métronome en croches sur ce morceau, au boulot ! ;-)

There you got excellent groove, spread around a very stylish way ! No big rhythm or notes issue although youll need to be accurate and play the short notes, i.e. youll have to muffle them as soon as played ! Poor things ! Thats the hard groove life Im afraid. (note from the translator: these jokes are NOT MY jokes! =D) Mind respecting the dead notes. Heard from outside, the basss entry might sound obvious but be very careful, because the first note (open E string) has got to fade after two and a half beats, so as to make the second note (a C on the A string) come on the third beat : then the riff goes on all by itself. (almost ;o]) Another tip : be careful by the ninth time, you gotta work on it slowly, and play it according to your interpretation. (you can play the series of notes on the D string adding Hammers and pullings to make it easier...) Last tip, listen to the charley carefully : it works as a quaver (eighth note) metronome !

0 Commentaires : réagissez !

1 2 3 4 5
0 notes
Aucun commentaire !

En Live

NIKOLAB a voté pour le message de Grumbll il y a 4 heures
Ignatius vient tout juste de rejoindre la communauté Slappyto. Bienvenue ! il y a 8 heures
Franchement et nofretnostress ont commenté le topic [A la recherche d'une basse bien précise..] de Franchement il y a 2 jours
Wario a commenté le topic [A la recherche d'une basse bien précise..] de Franchement il y a 2 jours
Bronsted et Franchement ont commenté le topic [Drop C et Warwick Streamer Stage 1] de Franchement il y a 2 jours
Iscou vient tout juste de rejoindre la communauté Slappyto. Bienvenue ! il y a 5 jours
Avamak vient tout juste de rejoindre la communauté Slappyto. Bienvenue ! il y a 1 semaine
Fissur79 vient tout juste de rejoindre la communauté Slappyto. Bienvenue ! il y a 1 semaine