ConnexionConnexionInscription
B E A D G
152 connectés Aller à Sweepyto Guitare

Groove - Plan Groovy 1

Publié par le
14/06/2013
20598 vues
Moyen 3
Vitesse NormaleNormal speed Vitesse RalentieSlow down speed
G--------------------------12---13---13--
D--------------------------11---12---12--
A----------------------5-----------------
E--0---0---5---7---8---------------------

G---------------------------------14--11H12-
D----------------------12PO11---------------
A----------5---6---7----------12------------
E--7---8------------------------------------

Plan Funky, groovy de mon cru. Avec des sonorités à la Stanley Clarke.

3 Commentaires

1 2 3 4 5
2 notes
Notes pour Plan Groovy 1 - Groove - Cours de basse vidéo | Slappyto : 4/5 sur 2 notes
#3
23/07/2013 21:53:35
salut, sympa ce groove, je m'y colle
0
0
#2
14/06/2013 17:28:35
ouuups, désolé. "ce baffe" quelle erreur. Je corrige sa de suite. Merci
0
0
#1
14/06/2013 17:26:57

Sympa,

sinon c'est Stanley Clarke pas clarque !

0
0

En Live

Kyhr et Cell ont commenté le topic [La mort de Slappyto?] de kurt il y a 1 jour
Kyhr, Cell et Malicia ont commenté le topic [Le Topic du Freepost 7] de Vikie il y a 1 semaine
Cell et Poppy ont voté pour le message de Poppyto il y a 1 mois
Cell a voté pour le message de MasterFailure il y a 1 mois
Cell a voté pour le message de grobass il y a 1 mois
Cell a commenté le topic [une chope s'il vous plait !] de Adrien21 il y a 1 mois