ConnexionConnexionInscription
B E A D G
238 connectés Aller à Sweepyto Guitare

Tool - Opiate (live 2014-2015-2016) Basse [ Artiste ]

Publié par le
02/10/2016
3010 vues
Débutant 1
    
        

Introduction à la basse uniquement
Accordage (Drop D) "DADG"
Justin Chancellor utilise une wal et joue 
avec un médiator ce qui donne cet effet "claquant"


Intro:
(FX intro: Un Delay avec de la Reverb et une très légère touche de Chorus)

BPM = 110

 5/4
G |-----------11---(11)9-------------|-----------12---(12)11----15------------|
D |-/9----(9)------------------------|-/12---(12)-----------------------------|
A |----------------------------------|----------------------------------------|
D |----------------------------------|----------------------------------------|

                                          3/4           4/4
G |-----------11---(11)9/////7--9--7--5----|----<7>------|-<5>----------------|
D |-/9----(9)------------------------------|-/7-----0----|-------<5>----------|
A |----------------------------------------|-------------|-------------0--2---|
D |----------------------------------------|-------------|--------------------|

Attendre le chant pour commencer à jouer la suite:

G |----------------------------------------------|
D |----------------------------------------------|
A |-0--2-------------------0-2-------------------|
D |----------------------------------------------|


/!\ LE BPM PASSE A 82 /!\

Le Riff du verse et du chorus:
 4/4
G |-------------4-----------------1-----------2------|
D |-------------------0--2-----2--------3------------|
A |-2--2--2--2---------------------------------------|
D |--------------------------------------------------| x23



Bridge 1:
 4/4
G |--------------4-----4-----------4-----------4-------|
D |----------------------------------------------------|
A |--2--2--2--2-----------2-----2--------2-------------|
D |----------------------------------------------------|

|--7--7-----7--7-----------------------------------|
|--7--7-----7--7-----------------------------------|
|--5--5-----5--5-----------------------------------|
|--0--0-----0--0-----------------------------------|

|--7--7-----7--7--------------------<5>------------|
|--7--7-----7--7--------------------<5>------------|
|--5--5-----5--5-----------------------------------|
|--0--0-----0--0-----------------------------------| 

|--7--7-----7--7-----------------------------------|--7--7-----7--7--------------<5>-----------------|
|--7--7-----7--7-----------------------------------|--7--7-----7--7--------------------<5>-----------|
|--5--5-----5--5-----------------------------------|--5--5-----5--5----------------------------------|
|--0--0-----0--0-----------------------------------|--0--0-----0--0----------------------------------| x3

|--7--7-----7--7-----7--7-----7--7-----7--7--7--7---|
|--7--7-----7--7-----7--7-----7--7-----7--7--7--7---|
|--5--5-----5--5------------------------------------|
|--0--0-----0--0------------------------------------| x4

Retour ou verse puis chorus:

G |-------------4-----------------1-----------2------|
D |-------------------0--2-----2--------3------------|
A |-2--2--2--2---------------------------------------|
D |--------------------------------------------------| x3

Interlude N°1

Break avec la ligne mélodique d'Adam Jones (Guitare)
Je n'arrive pas à identifier le riff de Justin (Basse) et son "son" est extrêmement modifié...

Voilà! Si vous avez des questions n’hésitez surtout pas à MP où à proposer des modifications.


-------------------------------------------------------------

Lien tablature Guitar Pro:

GPX: http://www.mediafire.com/file/s2c9j938p7s4j6i/opiate+%28extended+live+version%29+bass.gpx

GP5: http://www.mediafire.com/file/9xr7c2tzd57jhb8/opiate+%28extended+live+version%29+bass.gp5

-------------------------------------------------------------

Le live:


    
    

0 Commentaires : réagissez !

1 2 3 4 5
0 notes
Aucun commentaire !

En Live

LACEDEFE-B, yaip et Ray ont commenté le topic [pb entre basse G&L et ampli HARTKE] de LACEDEFE-B il y a 27 minutes
LACEDEFE-B a voté pour le message de yaip il y a 28 minutes
MELLOW, gozo et 7tit ont commenté le topic [vds/éch Fender Pb Roger Waters + case 580€] de gozo il y a 1 heure
Lucci68 vient tout juste de rejoindre la communauté Slappyto. Bienvenue ! il y a 4 heures
Badhour a commenté le topic [Ours02, bassiste en dilettante] de Ours02 il y a 6 heures
Badhour et tartine ont voté pour le message de Loann il y a 6 heures