ConnexionConnexionInscription
B E A D G
109 connectés Aller à Sweepyto Guitare

Pink Floyd - Money - 1

Publié par le
12/08/2006
49297 vues
Débutant 3
Vitesse NormaleNormal speed Vitesse RalentieSlow down speed
                                                         
G||-----4--------------------|-----4--------------------|
D||--------4-----------------|--------4-----------------|
A||--2--------2--------2--5b-|--2--------2--------2--5b-|
E||--------------2--5--------|--------------2--5--------|



|-----------------------|-----------------------|------------------------|
|-----------------------|--4----4------------4--|--3--2------------------|
|--2--5--2--------2--5b-|---------4-------4-----|-------2-------0--2--5--|
|-----------2--5--------|-----------2--5--------|---------0--3-----------|



|-----4--------------------||
|--------4-----------------||
|--2--------2--------2--5b-||
|--------------2--5--------||
Voici un groove très connu de notre cher Roger Waters. Il n'est pas spécialement difficile à effectuer, mais difficile à mettre en place. A niveau technique, les quelques petites difficultés qui peuvent apparaitre sont les petits sauts de corde à l'octave, les bend d'un quart de ton (ils sont à effectuer avec le petit doigt) et l'ecard entre les doigt. En effet j'avais vu un vidéo de Roger en train de la jouer et il ne se sert pratiquement pas des cordes à vide afin de pouvoir bender les notes. Donc souvenez vous, l'index s'occupe de la case 2, et ensuite c'est un doigt par case.
Niveau rythmique maintenant, tout le monde aura en ecoutant, trouvé quelque chose de special à ce groove. Cela vient du fait qu'il est ecris en 7/8, soit des mesure de 3,5 temps ou 7 demi temps. Certains le retranscrivent en 7/4 (mesures de sept temps) et le joue deux fois plus vite, mais cela reviens au même. Donc reglez bien votre métronome et au boulot!

2 Commentaires

1 2 3 4 5
4 notes
Notes pour Money - 1 - Pink Floyd - Cours de basse vidéo | Slappyto : 4/5 sur 4 notes
#2
15/08/2011 03:51:17
un classique, un obligatoire pour tous bassiste et comme c'est jolie
0
0
#1
02/05/2011 08:49:28
Très connu mais surtout très jolie  
1
0

En Live

Flea888 vient tout juste de rejoindre la communauté Slappyto. Bienvenue ! il y a 3 heures
Skydrover a commenté le topic [30 W tout lampes, suffisant ?] de skydrover il y a 4 heures
Golmout80 vient tout juste de rejoindre la communauté Slappyto. Bienvenue ! il y a 15 heures
Skydrover a commenté le topic [30 W tout lampes, suffisant ?] de skydrover il y a 16 heures
Skydrover a commenté le topic [30 W tout lampes, suffisant ?] de skydrover il y a 16 heures