ConnexionConnexionInscription
B E A D G
93 connectés Aller à Sweepyto Guitare

Anouk - The Dark

Publié par le
09/09/2006
57575 vues
Avancé 1
Vitesse NormaleNormal speed Vitesse RalentieSlow down speed
G----------------------------------7h12------------------------------------------
D-------------0h2-------x---------------11------0h2--------x------x--------------
A------------------0h2------x--x--------------------0h2------0h2------2h0--------
E---0------x-------------------------------0--x----------------------------3--0--


G---------------------------------5h6---------------6-----7----7------7----7h9--
D-------------0h2-------x-------------5-----------------------------------------
A------------------0h2------x--x---------------2h4-----5-----x------x-----x-----
E---0------x-------------------------------0------------------------------------

 Il y a deux grosses difficultés sur ce plan, à savoir le placement des bloqués de cordes et la précision du slide 7h12. Le plan se retient assez facilement donc apprenez le à allure réduite afin de ne pas oublier des bloqués !

1 Commentaire

1 2 3 4 5
5 notes
Notes pour The Dark - Anouk - Cours de basse vidéo | Slappyto : 4/5 sur 5 notes
#1
05/09/2017 13:33:00

L'image de la tablature est mal encodée il manque la fin de chaque ligne.
Elles y été avant, il y a quelques années

0
0

En Live

JR BASS, escaliyo et grobass ont commenté le topic [HELP CONFIG AMPLI !] de JR BASS il y a 10 heures
Fred18 vient tout juste de rejoindre la communauté Slappyto. Bienvenue ! il y a 10 heures
Escaliyo a voté pour le message de grobass il y a 13 heures
Escaliyo a commenté le topic [Basse pour débuter ] de Patmustang il y a 21 heures
Ray a voté pour le message de grobass il y a 1 jour
Jerem65 et grobass ont commenté le topic [Et vous, vous écoutez quoi maintenant ?] de nono il y a 1 jour