ConnexionConnexionInscription
B E A D G
152 connectés Aller à Sweepyto Guitare

The Stranglers - Princess off the streets

Publié par le
14/09/2008
32717 vues
Débutant 3
Vitesse NormaleNormal speed Vitesse RalentieSlow down speed
G|---12---12-12---12---12-12----12--10--------------------------|
D|---------------------------------------12---11--10------------|
A|--------------------------------------------------------13----|
E|--------------------------------------------------------------|


G|--------------------------------------------------------------|
D|----------------11--10—-8-------------------------------------|
A|---10--10--10--------------10----8----------------------------|
E|------------------------------------10---9---8----6-----------|


G|--------------------------------------------------------------|
D|--------------------------------------------------------------|
A|--------------------------------------------------------------|
E|---3------3----3-------3----3------3----3-------2-------------|


G|--------------------------------------------------------------|
D|--------------------------------------------------------------|
A|--------------------------------------------------------------|
E|---1-------1----1------1----1------1----1--------2------------|


G|--------------------------------------------------------------|
D|--------------------------------------------------------------|
A|--------------------------------------------------------------|
E|---3------3----3-------3----3------3----3---- --2-------------|


G|----------------------------------------------0-----3---------|
D|----------------------------------0-----3---------------------|
A|--------------------------------------------------------------|
E|---1------1----1------1----1----------------------------------|

G|--------------------------------------------------------------|
D|---------------5---3------------------------------------------|
A|------------------------5---4---3---1---0---0-----------------|
E|----3------3--------------------------------------3-----------|



G|----------------------------------------------0-----3---------|
D|----------------------------------0-----3---------------------|
A|--------------------------------------------------------------|
E|---1------1----1------1----1----------------------------------|


G|--------------------------------------------------------------|
D|---------------5---3------------------------------------------|
A|------------------------5---4---3---1---0---0-----------------|
E|----3------3--------------------------------------3-----------|



G|--------------------------------------------------------------|
D|--------------------------------------------------------------|
A|--------------------------------------------------------------|
E|---1-------1----1------1----1------1----1--------1------------|

SHE`S GONE AND

G|--------------------------------------------------------------|
D|--------------------------------------------------------------|
A|--------------------------------------------------------------|
E|---3------3----3-------3----3------3----3---- --2-------------|

Ce titre est un bon exercice pour les sauts de cordes au médiator. Rien de bien compliqué dans cette intro, une fois bien mémorisé, ça tourne tout seul. Ce titre est assez lent: Attention à la "respiration" du morceau , aux silences pour placer la bonne note au bon moment...ce qui n'est pas toujours facile...

L’intérêt est ici de
- Gérer les silences entre les notes.
- Faire sonner des notes à un tempo lent (ce qui est une fausse facilité: à ce tempo, la moindre approximation fait mal).
- Travailler au médiator.
- Se faire plaisir !

1 Commentaire

1 2 3 4 5
1 note
Notes pour Princess off the streets - The Stranglers - Cours de basse vidéo | Slappyto : 4/5 sur 1 note
#1
08/11/2011 21:40:25

merci pour ce cour, et puis tu as raison au sujet des silences entre les notes,....jilane, abientot

0
0

En Live

Golmout80 vient tout juste de rejoindre la communauté Slappyto. Bienvenue ! il y a 10 heures
Skydrover a commenté le topic [30 W tout lampes, suffisant ?] de skydrover il y a 11 heures
Skydrover a commenté le topic [30 W tout lampes, suffisant ?] de skydrover il y a 12 heures