ConnexionConnexionInscription
B E A D G
143 connectés Aller à Sweepyto Guitare

XTC - One of the Millions

Publié par le
13/11/2010
8162 vues
Moyen 3
Vitesse NormaleNormal speed Vitesse RalentieSlow down speed
couplet
----------------------------------------------------
0--7/9--0--/7-9--0------0---------------------3-----
--------------------10------8--5--5--3--5--5-----5--
----------------------------------------------------


----------------------------------------------------
0--7/9--0--/7-9--0------0---------------------------
--------------------10------8--5--5--3--5--5--3--0--
----------------------------------------------------


-------------------------------------------------------
0--7/9--0--/7-9--0------0------------------------------
--------------------10------8--5--5--3--5--5--3--0---3-
-------------------------------------------------------





ref
-------------------------------------
0--9--11--12--11--9------9-----------
---------------------12--------------
----------------------------12--12---


--------------------------------------
0--9--11--12--11--9------14-----------
---------------------12---------------
----------------------------12--12----


--------------------------------------
0--9--11--12--11--9------9--11--12----
---------------------12---------------
--------------------------------------


9--11--13--14--13--11--9-------------
-------------------------11--12--9--
------------------------------------
------------------------------------




-------------------------------------
0--9--11--12--11--9------9-----------
---------------------12--------------
----------------------------12--12---


--------------------------------------
0--9--11--12--11--9------14-----------
---------------------12---------------
----------------------------12--12----


--------------------------------------
0--9--11--12--11--9------9--11--12----
---------------------12---------------
--------------------------------------


9--11--13--14--13--11--9--14--13------
--------------------------------------
--------------------------------------
--------------------------------------

Une ligne de basse de Colin Moulding, certainement sa plus belle. On a le droit ici à un exercice de style qui peut faire référence dans l'histoire de la pop anglaise.
La ligne est assez rapide et cependant, Moulding la joue beaucoup de nuances et de subtilité: attention aux slides, résonances de corde à vides et autres chausse-trappes.
Commencer lentement (c'est encore plus dur) avec précision ...


ref: XTC album "Oranges & Lemons"



Image

5 Commentaires

1 2 3 4 5
6 notes
Notes pour One of the Millions - XTC - Cours de basse vidéo | Slappyto : 4/5 sur 6 notes
#5
20/01/2011 00:27:39
Ouarf ! Je me souviens que je t'en avais filé un bout mais que je connaissais pas l'original Je me suis demandé d'où tu sors ça ! En tout cas chapeau !
0
0
#4
18/11/2010 21:00:44
Ah bin c'est super les gars! Je tiens quand même à dire que j'ai été aidé pour la tab, je me rappelle plus de tout le monde (alors je ne citerais personne )
Une précision: ça se joue normalement sur 5 cordes

Enjoy les gars 
0
0
#3
17/11/2010 23:29:51
merci Bertie  
0
+1
#2
17/11/2010 17:25:37
exellente ligne de basse!
0
0
#1
13/11/2010 13:40:22
Superbe basse: j'ai la même
http://www.youtube.com/watch?v=t9m8-EUFi-E
0
0

En Live

Vox 22 vient tout juste de rejoindre la communauté Slappyto. Bienvenue ! il y a 1 heure
Wario a commenté le topic [GL Kiloton US 890€] de Wario il y a 7 heures
Freinet vient tout juste de rejoindre la communauté Slappyto. Bienvenue ! il y a 7 heures
Serge blessing vient tout juste de rejoindre la communauté Slappyto. Bienvenue ! il y a 1 jour
Vin'z du 50 vient tout juste de rejoindre la communauté Slappyto. Bienvenue ! il y a 2 jours
Gozo et koches ont commenté le topic [vds WARWICK Corvette std MIG 600€] de gozo il y a 2 jours
Off67 vient tout juste de rejoindre la communauté Slappyto. Bienvenue ! il y a 2 jours
Grobass, nama kemono, popolito et Wario ont commenté le topic [La mort de Slappyto?] de kurt il y a 2 jours
Mickey738 vient tout juste de rejoindre la communauté Slappyto. Bienvenue ! il y a 3 jours