ConnexionConnexionInscription
B E A D G
206 connectés Aller à Sweepyto Guitare

Polyphonie - Plan Polyphonique à la Stanley Clarke

Publié par le
21/06/2013
15102 vues
Moyen 3
Vitesse NormaleNormal speed Vitesse RalentieSlow down speed
G|---13-------14---13---11----------------9-------11---9---7---
D|---------------------------0---9---11------------------------
A|--------------------------------------------0----------------
E|--------0----------------------------------------------------

G|----------------7---6-------7---6---4-------|
D|0---0---7---9-------------------------------|
A|------------------------7-------------------|
E|--------------------------------------------|

G|-------5---4-------4-------2--------------------
D|-----------------------0-------2----------------
A|---3-----------2-------------------2------------
E|---------------------------------------3---0----

Alors voici un plan, à la Stanley Clarke -le roi des grooves polyphonique- Donc ce qui est important, dans ce riff, c'est de bien faire sonner les notes dites "basses", du coup, laisser sa main droite en suspend, pour ne pas qu'elle heurte les cordes et coupe donc le son. le son doit ce propager dans tout votre corps.

Un je ne sais quoi de presque rien
qui rend ces plans magique.

2 Commentaires

1 2 3 4 5
1 note
Notes pour Plan Polyphonique à la Stanley Clarke - Polyphonie - Cours de basse vidéo | Slappyto : 5/5 sur 1 note
#2
22/10/2016 20:02:50
Merci pour cette petite vidéo et ce plan tout en feeling.

Pour ta gouverne cette ligne n'est pas du grand Stanley mais de Mark King qui a apporter beaucoup à la basse.

Big up,

http://95sounds.fr/lesroisdelevasion
0
0
#1
24/06/2013 21:36:05
Merci pour ce plan ! Il est maintenant dans mes doigts, ça m'a fait mon ptit plan de la soirrée et il est top  
Juste dommage qu'il n'y ai pas la partoch, ça aide quand même pas mal.
0
0

En Live

Fluckleturbin, bilbaroud et Ray ont commenté le topic [Association de Mots] de Claypool-Fish! il y a 41 minutes
Fluckleturbin a commenté le topic [La mort de Slappyto?] de kurt il y a 41 minutes
Wario a commenté le topic [Impédance quand tu nous tien] de angenoir3012 il y a 56 minutes
Pat et 4strings2rock ont commenté le topic [LE morceau qui vous a donné envie de jouer de la b...] de Mad Matt il y a 1 heure
Touiter a commenté le wall de gozo il y a 2 heures