ConnexionConnexionInscription
B E A D G
128 connectés Aller à Sweepyto Guitare

Jamiroquai - Digital vibrations

Publié par le
30/03/2006
44969 vues
Débutant 3
Vitesse NormaleNormal speed Vitesse RalentieSlow down speed
G----|----------5-H-7----|----------5-H-7--------|
D----|-------------------|-----------------------|
A----|-3---3--X----------|-3---3--X--------5-5-5-|
E--3-|---3-------------3-|---3-------------------|

G-----------|-----------|-----------5-H-7----|
D-----------|-----------|--------------------|
A-5--5------|-5--5------|--3---3--X----------|
E---------5-|---------3-|----3-------------3-|

G----------5-H-7--------|-----------|-----------------|
D-----------------------|-----------|-----------------|
A-3---3--X--------5-5-5-|-5--5------|-5--5------------|
E---3-------------------|---------5-|-------X-X-1--3--|
Ce morceau tourne lentement. Par conséquent, concentrez-vous sur ce riff et écoutez les silences. C'est un très bon exo pour travailler le rythme. Cependant, il ne faut pas croire qu'il est si évident de mettre en place un morceau lent avec très peu de notes, bien au contraire. Ici, il vous faudra travailler les silences pour placer la bonne note au bon moment. Imprégnez-vous bien du morceau pour vous aider si la vidéo ne vous suffit pas. Puis, travaillez sans le morceau avec un métronome, comme d'habitude. C'est un exercice particulièrement important rythmiquement, ne le négligez pas ;-)

0 Commentaires : réagissez !

1 2 3 4 5
0 notes
Aucun commentaire !

En Live

Iscou vient tout juste de rejoindre la communauté Slappyto. Bienvenue ! il y a 2 jours
Avamak vient tout juste de rejoindre la communauté Slappyto. Bienvenue ! il y a 4 jours
Fissur79 vient tout juste de rejoindre la communauté Slappyto. Bienvenue ! il y a 4 jours
Franchement, Wario, grobass, bassman59 et Angel ont commenté le topic [Micros.] de Franchement il y a 5 jours
Philbass02 vient tout juste de rejoindre la communauté Slappyto. Bienvenue ! il y a 1 semaine
Fredbasse50 vient tout juste de rejoindre la communauté Slappyto. Bienvenue ! il y a 1 semaine