ConnexionConnexionInscription
B E A D G
153 connectés Aller à Sweepyto Guitare

Bob Marley - Stir It Up [ Artiste ]

Publié par le
03/11/2010
51070 vues
Moyen 1
http://www.deezer.com/listen-2423908
    
        

Note : + = Mute String (Stop Sound)

Intro :
 |: 6x           :|
G|----------------|----------------|----------------|
D|----------------|----------------|--4-7-----6-9---|
A|----------------|----4--45---4--4|5------57-------|
E|----------------|5---------------|----------------|

Chorus :
 |: 4x                            :|
G|----------------|----------------|
D|----------------|--4-7-----6-9---|
A|----4--45---4--4|5------57-------|
E|5---------------|----------------|

Verse :
 |: 4x                            :|                |: 4x                            :|
G|----------------|----------------|                |----------------|----------------|
D|----------------|----4-----------|                |----------------|----------------|
A|----4-----------|5-77--5-+-------|  <- choose ->  |----------------|5-779-5-+-------|
E|5-77--5-+-------|----------------|                |5-779-5-+-------|----------------|

Chorus 
Verse
Chorus
Verse
Chorus

Bridge :
G|----------------|----------------|
D|----------------|--4-7-----6-9---|
A|----4--45---4--4|5------57-------|
E|5---------------|----------------|

Verse (Instru)
Chorus (Instru)
Verse (Instru)
Chorus
Chorus (fading out)


Source: http://basse.over-blog.com.
    
    

2 Commentaires

1 2 3 4 5
16 notes
Notes pour Stir It Up Basse Tab - (Bob Marley) | Slappyto : 4/5 sur 16 notes
#2
30/06/2012 10:54:58
pas mal  mais que je ne comprend  pas très bien au niveau du
choose.
 mais mon probleme  est que j'ai du mal a lit les tablatures 
0
+1
#1
29/11/2011 18:34:32
Un grand merci à toi!
0
+1

En Live

JR BASS, grobass et escaliyo ont commenté le topic [HELP CONFIG AMPLI !] de JR BASS il y a 1 heure
Fred18 vient tout juste de rejoindre la communauté Slappyto. Bienvenue ! il y a 2 heures
Escaliyo a voté pour le message de grobass il y a 5 heures
Escaliyo a commenté le topic [Basse pour débuter ] de Patmustang il y a 12 heures
Ray a voté pour le message de grobass il y a 23 heures
Jerem65 et grobass ont commenté le topic [Et vous, vous écoutez quoi maintenant ?] de nono il y a 23 heures