ConnexionConnexionInscription
B E A D G
105 connectés Aller à Sweepyto Guitare

System Of A Down - Toxicity [ Artiste ]

Publié par le
26/03/2011
13656 vues
Moyen 2
http://www.youtube.com/watch?v=IJmt3dr9XYQ
    
        

Pensez bien à accorder en drop C.

Intro/Refrain

G[----------------------[-------------------------------------------------[
D|----------------------|-------------------------------------------------|
A|----------------------|-------------------------------------------------| x2
C]-0---------3-2-0-2-0--]-8---8-8-8-8-8---8-8-8-8-7---7-7-7-7-7---7-7-7-7-]

G[------------------------------------------------[-------------------------------------------------[
D|------------------------------------------------|-------------------------------------------------|
A|------------------------------------------------|-------------------------------------------------|
C]-3-2-0-2-0-0-3-2-0-2-0-0-3-2-0-2-0-0-3-2-0-2-0-0]-8---8-8-8-8-8---8-8-8-8-7---7-7-7-7-7---7-7-7-7-]

G[----------------------[-------------------------------------------------[
D|----------------------|-------------------------------------------------|
A|----------------------|-------------------------------------------------|
C]-0---------3-2-0-2-0--]-8---8-8-8-8-8---8-8-8-8-7---7-7-7-7-7---7-7-7-7-]

Couplet (il y a des variations)

G[-----------------[-----------------[-----------------[-----------------[
D|---5---5---5---5-|---5---5---5---5-|---8---8---8---8-|---8---8---8---8-|
A|-3---3---3---3---|-3---3---3---3---|-6---6---6---6---|-6---6---6---6---|
C]-----------------]-----------------]-----------------]-----------------]

Pont/Outro

G[-------------------------------------------------[
D|-------------------------------------------------|
A|-------------------------------------------------| x2
C]-3-0-0-0-0-0-3-0-0-0-0-0-3-0-0-0-0-0-3-0-0-0-0-0-]

G[------------------------------------------[
D|------------------------------------------|
A|------------------------------------------| x2
C]-0---0-0-0-0-3-2-0-2--0---0-0-0-0-3-2-0-2-]
    
    

1 Commentaire

1 2 3 4 5
4 notes
Notes pour Toxicity Basse Tab - (System Of A Down) | Slappyto : 3/5 sur 4 notes
#1
28/03/2012 17:25:38
Le couplet est faux il me semble, mais le reste sonne assez bien.
0
0

En Live

Jazzbassfoufou vient tout juste de rejoindre la communauté Slappyto. Bienvenue ! il y a 16 heures
MrSpit a commenté le topic [Sandberg Fretless] de MrSpit il y a 19 heures
Sasam a commenté le wall de deni's il y a 4 jours