ConnexionConnexionInscription
B E A D G
69 connectés Aller à Sweepyto Guitare

Interpol - Summer Well [ Artiste ]

Publié par le
25/11/2010
2848 vues
Moyen 1
http://www.youtube.com/watch?v=6wkgBZ-bGog
    
        

The ' indicates play the same as the previous note. 

Intro/Verse: 
G|--------|   G|-------|   G|-------|   G|-------|   G|-------|   G|-------|   G|--------| 
D|----9---|x4 D|---7---|x8 D|---9---|x4 D|---7---|x8 D|---9---|x4 D|---7---|x7 D|----77--| 
A|--9*-9--|   A|--9-9--|   A|--9-9--|   A|--9-9--|   A|--9-9--|   A|--9-9--|   A|--9-----| 
E|--------|   E|-------|   E|-------|   E|-------|   E|-------|   E|-------|   E|--------| 
*Not played the first time 

(0:35) 
G|--------|   G|-------|   G|-------|   G|-------|   G|---------------| 
D|----9---|x4 D|---7---|x8 D|---9---|x4 D|---7---|x6 D|---7----7------| 
A|--9*-9--|   A|--9-9--|   A|--9-9--|   A|--9-9--|   A|--9--999-9-----| 
E|--------|   E|-------|   E|-------|   E|-------|   E|-----------56--| 
*Not played the first time 

Chorus 1/2: 
G|-----------------------------------------------------------------------------| 
D|----------------------2----2-------------------------------------------------| 
A|--5----5----4----4-—-4-4—-4-4----11------11------9------9------9-12----9-12--| 
E|---7--7-7--5-5—-5-5------------12--12--12--12--10-10--10-10--10------10------| 

G|-----------------------------------------------------------------| 
D|-----------------------2----2------------------------------------| 
A|---5----5----4----4-—-4-4—-4-4----11------11------9------9-------| 
E|--7-7--7-7--5-5—-5-5------------12--12--12--12--10-10--10—10’97--| 

(1:41) 
G|----------------| G|-----------------------------------------------------------------| 
D|-----12------12-| D|-9-----9------9----9------7----7----7----7---7----7----7----7----| 
A|-9-12----9-12---| A|--9---9-9----9--999-9----9-9--9-9--9-9--9-999-9--9-9--9-9--9-979-| 
E|----------------| E|-----------------------------------------------------------------|x3 

G|---------------------------------------------------------------------| 
D|--9------9------9----9------7----7----7----7---7----7----7----7------| 
A|---9----9-9----9--999-9----9-9--9-9--9-9--9-999-9--9-9--9--999-9-----| 
E|-----------------------------------------------------------------56--| 

Outro:
G|-----------------------------------------------------------------| 
D|-----------------------------------------------------------------| 
A|----------------------4444-4444-7777-7777-4555-5555-4555-444-----| 
E|--7777-7777-5555-5555---------------------------------------5----|x2 

G|------------------------6----------------------------------------| 
D|-------------------------------6-9-999\------44-777\------44-7---| 
A|----------------------44-4/777-----------555----------555--------| 
E|--7777-7777-5555-5555-----------------------------------------5--|x4 

| / slide up 
| \ slide down 
    
    

0 Commentaires : réagissez !

1 2 3 4 5
0 notes
Aucun commentaire !

En Live

Wario, nicobasse et Pasc74 ont commenté le topic [GL Kiloton US 890€] de Wario il y a 14 heures
Seeb vient tout juste de rejoindre la communauté Slappyto. Bienvenue ! il y a 15 heures
Nicobasse a commenté le topic [ATK 300 1996 350euros] de vince75018 il y a 16 heures
Didbass09 a commenté le topic [musicman sterling USA ] de 3dd-titix il y a 23 heures
Capt. Roca 974 et KaKemono ont commenté le topic [Reglage pour grOs tirant nylon] de Capt. Roca 974 il y a 1 jour
JV62 vient tout juste de rejoindre la communauté Slappyto. Bienvenue ! il y a 1 jour
Darkkimhari, MGKS, grobass, Groumph! et erix ont commenté le topic [Basse sur mesure made in China] de darkkimhari il y a 1 jour
OverSeaS vient tout juste de rejoindre la communauté Slappyto. Bienvenue ! il y a 2 jours
Erix a commenté le topic [Warwick Thumb NT état neuf] de chevaliernoir il y a 2 jours