ConnexionConnexionInscription
B E A D G
146 connectés Aller à Sweepyto Guitare

Skunk Anansie - Hedonism [ Artiste ]

Publié par le
03/10/2011
13697 vues
Moyen 1
http://www.youtube.com/watch?v=HOkPWv6ztIE
    
        

   Couplet : 0:12 - 0:33


G |--------------------------|-------------------------------|
D |--------------------------|----------------1--1-----------|
A |--------------------------|---------1---1--------3--------|
E |-1-----0-1--1-----0--1--2-|-3----3------------------------|

G |--------------------------|----------------------------------|
D |--------------------------|----------------1--1--3-1---------|
A |--------------------------|---------1---1------------3-1-----|
E |-1-----0-1--1-----0--1--2-|-3----3---------------------------|

G |--------------------------|----------------------------------|
D |--------------------------|----------------1--1-----5--------|
A |--------------------------|---------1---1--------3-----------|
E |-1-----0-1--1-----0--1--2-|-3----3---------------------------|

G |--------------------------|
D |--------------------------|
A |---------------3----------|
E |-1-1---0-1--1-----1-------|


   Refrain : 0:34 - 0:57

1ère mesure :

G |---------------------------------------------------|
D |---------------------------------------------------|
A |-6-----6-6-8---------------------------------------|
E |------------6----6-6-4-3-1-----1-1-3-4----4-4-3-1--|

2ème mesure :

G |----------------------------------------------------|
D |-------------8----8---8-----------------------------|
A |-6-----6-6-8-----8---8-8----------------------------|
E |------6---------------------1----1-1-3-4------------|

   Couplet 0:59 - 1:21

   Refrain : 1:23 - 1:45

Pour le refrain, à la place de la deuxième mesure faire sa :

G |----------------------5-3-------------------------------|
D |-------------8---------------5-3-1----------------------|
A |-6--66-6-8------------------------3-1-------------------|
E |-------------------------------------3-1---1-1-3-4------|

Solo :

|--------------------------------|--------------------------------|   (3x)
|--------------------------------|-----------------------------5--|
|-------------------------------3|-5---5---------3-5---5---3------|
|-3---3-----1-3-4-5---5-----3-5--|-----------3-5------------------|

|--------------------------------|--------------------------------|   (1x)
|--------------------------------|--------------------------------|
|--------------------------------|-3---3---3---3---3---3---3---3--|
|-3---3-----1-3-4-5---5-------5--|--------------------------------|

Dernier Refrain :

|-------------------------|------------------------|
|-------------------------|------------------------|
|---------------------3---|-------------3-----3----|
|-1--------0-1--1--3------|-----------3-----3------| 

                                                            x3
|-------------------------|------------------------|
|-------------------------|------------------------|
|-------------------0--1--|-----------0-1--1--0-(3)|
|-3---------2-3--3--------|----------------------3-| 




|-------------------------|-------------7-5-------------|-------------------------|
|-------------------------|-----------------7-5---------|-------------------------|
|---------------------3---|---------------------8-5-----|--------------------0--1-|
|-1--------0-1--1--3------|-------------------------8-5-|-3---------2-3--3--------|
	





    
    

0 Commentaires : réagissez !

1 2 3 4 5
3 notes
Notes pour Hedonism Basse Tab - (Skunk Anansie) | Slappyto : 5/5 sur 3 notes
Aucun commentaire !

En Live

Cell a commenté le topic ["recherche" Digitech bass synth wah] de Cell il y a 4 heures
Cell et yvesson ont commenté le topic [Le Topic du Freepost 7] de Vikie il y a 4 heures
Cell a commenté le topic ["recherche" Digitech bass synth wah] de Cell il y a 4 heures
Yvesson a commenté le topic [Amateurs de photographie, bon-jour/soir !] de cha0s-the0ry il y a 17 heures
Yvesson, sam et YannGGP ont commenté le topic [La mort de Slappyto?] de kurt il y a 17 heures
Glimmerkajal vient tout juste de rejoindre la communauté Slappyto. Bienvenue ! il y a 3 jours
Wario a commenté le topic [videothèque des sons] de mr gone il y a 1 semaine
Lebollos59 vient tout juste de rejoindre la communauté Slappyto. Bienvenue ! il y a 1 semaine
GregRock vient tout juste de rejoindre la communauté Slappyto. Bienvenue ! il y a 1 semaine
Chris927 vient tout juste de rejoindre la communauté Slappyto. Bienvenue ! il y a 2 semaines