ConnexionConnexionInscription
B E A D G
130 connectés Aller à Sweepyto Guitare

Outkast - Hey Ya [ Artiste ]

Publié par le
13/11/2012
5408 vues
Débutant 1
http://www.youtube.com/watch?v=PWgvGjAhvIw&feat...
    
        

Outkast - Hey Ya
Speakerboxxx/The Love Below


G-------------------------------------------------------------|
D-------------------------------------------------------------|
A--------------3-3-3-3-3-3-3-3-3-3--5-5--7-7-7-7-7-7-7-7-7-7--|
E--3-3-3-3-3--------------------------------------------------|

Or if you want it with fills:

G----------------------------------------------------------------|
D----------------------------------------------------------------|
A------------0-2--3-3-3-3-3-3-3-3-3-3--5-5--7-7-7-7-7-7-7-7-7-7--|
E--3-3-3-3-------------------------------------------------------|


This song is very simple to do on bass.
Listen to the song for changes and you'll master this song very quickly.
Recommended for beginners.
    
    

0 Commentaires : réagissez !

1 2 3 4 5
1 note
Notes pour Hey Ya Basse Tab - (Outkast) | Slappyto : 4/5 sur 1 note
Aucun commentaire !

En Live

Wario a commenté le topic [videothèque des sons] de mr gone il y a 4 jours
Lebollos59 vient tout juste de rejoindre la communauté Slappyto. Bienvenue ! il y a 5 jours
GregRock vient tout juste de rejoindre la communauté Slappyto. Bienvenue ! il y a 6 jours
Chris927 vient tout juste de rejoindre la communauté Slappyto. Bienvenue ! il y a 1 semaine
Greeshma vient tout juste de rejoindre la communauté Slappyto. Bienvenue ! il y a 1 semaine
Ludo ZEFISH vient tout juste de rejoindre la communauté Slappyto. Bienvenue ! il y a 1 semaine
Nicobass1793 vient tout juste de rejoindre la communauté Slappyto. Bienvenue ! il y a 1 semaine
Indonesiae vient tout juste de rejoindre la communauté Slappyto. Bienvenue ! il y a 1 semaine
Grandbill a commenté la tablature de Coup_de_pelle il y a 1 semaine