ConnexionConnexionInscription
B E A D G
160 connectés Aller à Sweepyto Guitare

Marcus Miller - Power [ Artiste ]

Publié par le
27/12/2012
3539 vues
Avancé 2
http://www.youtube.com/watch?v=Me2H5O0kKI0
    
        

G -7----------------------------7---------------
D -7--7-75------9-----------7/9---7-7-9-----777-
A --------75------x-x-7-9-9------------7-9------
E -7--------7-5---------------------------------

G -7----------------------------7--- 1)---------  2)---------------
D -7--7-75------9-----------7/9---7-   ---6---7-    -7-9-----77777-
A -------75-------x-x-7-9-9---------   ---------    -----7-9-------
E -7--------7-5---------------------   /4--/5---    ---------------

C'est le thème principal de la chanson, pas le temps/l'envie de faire la suite, 
si vous voulez la faire envoyez-la moi, je la rajouterai
    
    

0 Commentaires : réagissez !

1 2 3 4 5
0 notes
Aucun commentaire !

En Live

Wario a commenté le topic [videothèque des sons] de mr gone il y a 5 jours
Lebollos59 vient tout juste de rejoindre la communauté Slappyto. Bienvenue ! il y a 5 jours
GregRock vient tout juste de rejoindre la communauté Slappyto. Bienvenue ! il y a 6 jours
Chris927 vient tout juste de rejoindre la communauté Slappyto. Bienvenue ! il y a 1 semaine
Greeshma vient tout juste de rejoindre la communauté Slappyto. Bienvenue ! il y a 1 semaine
Ludo ZEFISH vient tout juste de rejoindre la communauté Slappyto. Bienvenue ! il y a 1 semaine
Nicobass1793 vient tout juste de rejoindre la communauté Slappyto. Bienvenue ! il y a 1 semaine
Indonesiae vient tout juste de rejoindre la communauté Slappyto. Bienvenue ! il y a 1 semaine
Grandbill a commenté la tablature de Coup_de_pelle il y a 1 semaine