ConnexionConnexionInscription
B E A D G
137 connectés Aller à Sweepyto Guitare

Taylor Swift - I Knew You Were Trouble [ Artiste ]

Publié par le
29/05/2013
2341 vues
Débutant 4
http://www.youtube.com/watch?v=vNoKguSdy4Y
    
        

 I Knew You Were Trouble                             


                                                                    Taylor Swift
Basse

Couplet:

     H.           Q          E  E  E  E  E  E  E  E   
G||---------------------||---------------------------|
D||---------------------||*--------------------------|
A||---------------6S----||*--9--9--9--9--9--9--9--9--|
E||---------------------||---------------------------|


  E  E  E  E  E  E  Q        E  E  E  E  E  E  E  E   
--------------------------|--------------------------|
--------------------------|--------------------------|
--9--9--9--9--9--9--9S----|--4--4--4--4--4--4--4--4--|
--------------------------|--------------------------|


  E  E  E  E  E  E  Q        E  E  E  E  E  E  E  E   
--------------------------|--------------------------|
--------------------------|--------------------------|
--4--4--4--4--4--4--4S----|--6--6--6--6--6--6--6--6--|
--------------------------|--------------------------|


  E  E  E  E  E  E  E  E     E  E  E  E  E  E  E  E   
--------------------------|--------------------------|
--------------------------|--------------------------|
--6--6--6--6--6--6--6-----|--------------------------|
-----------------------9--|--7--7--7--7--7--7--7--7--|


  E  E  E  E  E  E  Q        
---------------------------||
--------------------------*||
--------------------6S----*||
--7--7--7--7--7--7---------||



Pont:

     W                   W                   W                 
G||-------------------|-------------------|-------------------|
D||-------------------|-------------------|-------------------|
A||--6----------------|-------------------|-------------------|
E||-------------------|--7----------------|--9----------------|


  H        H           W                   W                 
--------------------|-------------------|-------------------|
--------------------|-------------------|-------------------|
--9-----------------|--6----------------|-------------------|
-----------9--------|-------------------|--7----------------|


  W                  
-------------------||
-------------------||
-------------------||
--9----------------||



Refrain:


      E  H        Q    E     E  H        Q    E     E  H        Q    E   
G||-----------------------|----------------------|----------------------|
D||*----------------------|----------------------|----------------------|
A||*--6--L-------------6--|----------------------|----------------------|
E||-----------------------|--7--L-------------7--|--9--L-------------9--|


  |----3----|                
  Q    Q    Q    H           
---------------------------||
--------------------------*||
--9----9----9-------------*||
-----------------9---------||






Duration Legend
---------------
W - whole
H - half
Q - quarter
E - 8th
S - 16th
T - 32nd
X - 64th
. - note dotted
|-n-|  - n-tuplets


Tablature Legend
----------------
L - tied note
x - dead note
g - grace note
(n) - ghost note
 - accentuded note
NH - natural harmonic
AH - artificial harmonic
TH - tapped harmonic
SH - semi harmonic
PH - pitch harmonic
h - hammer on
p - pull off
b - bend
br - bendRelease
pb - preBend
pbr - preBendRelease
brb - bendReleaseBend

/ - tremolo bar dip

 - tremolo bar dive
-/n - tremolo bar Release up
/n - tremolo bar inverted dip
/n - tremolo bar return
-
 - tremolo bar Release down
S - shift slide
s - legato slide
/ -  slide into from below or out of upwards
 -  slide into from above or out of downwards
~ - vibrato
W - wide vibrato
tr - trill
TP - tremolo picking
T - tapping
S - slap
P - pop
 - fade in
^ - brush up
v - brush down

    
    

0 Commentaires : réagissez !

1 2 3 4 5
0 notes
Aucun commentaire !

En Live

Glimmerkajal vient tout juste de rejoindre la communauté Slappyto. Bienvenue ! il y a 2 jours
Wario a commenté le topic [videothèque des sons] de mr gone il y a 1 semaine
Lebollos59 vient tout juste de rejoindre la communauté Slappyto. Bienvenue ! il y a 1 semaine
GregRock vient tout juste de rejoindre la communauté Slappyto. Bienvenue ! il y a 1 semaine
Chris927 vient tout juste de rejoindre la communauté Slappyto. Bienvenue ! il y a 2 semaines
Greeshma vient tout juste de rejoindre la communauté Slappyto. Bienvenue ! il y a 2 semaines
Ludo ZEFISH vient tout juste de rejoindre la communauté Slappyto. Bienvenue ! il y a 2 semaines
Nicobass1793 vient tout juste de rejoindre la communauté Slappyto. Bienvenue ! il y a 2 semaines
Indonesiae vient tout juste de rejoindre la communauté Slappyto. Bienvenue ! il y a 2 semaines