ConnexionConnexionInscription
B E A D G
151 connectés Aller à Sweepyto Guitare

Oxmo Puccino & the Jazzbastards - Perdre et gagner [ Artiste ]

Publié par le
12/01/2011
3445 vues
Débutant 1
http://www.deezer.com/listen-3113757
    
        

Oxmo Puccino & the jazzbastards                                                                
Perdre et gagner
Lipopette bar


G||-------------------|
D||-------------------| x13
A||-------------------|
E||-------------------|


la basse entre à 0:33 
----------------------|
----------------------|
--1----1----0----0----|
----------------------|


Refrain  
--------------------------|--------------------------|--------------------------|
-----0-----0-----0-----0--|-----2-----2-----2-----2--|-----3-----3-----3-----3--|
--------------------------|--------------------------|--------------------------|
--------------------------|--------------------------|--------------------------|


 
--------------------------|--------------------------|--------------------------|
-----4-----4--------------|--------------------------|-----6-----6-----6-----6--|
-----------------5-----5--|--------------------------|--------------------------|
--------------------------|-----3-----3-----3-----3--|--------------------------|


      
--------------------------|----------------------|--------------------------|
-----3-----3-----3-----3--|----------------------|--------------------------|
--------------------------|--1----1----0----0----|--------------------------|
--------------------------|----------------------|--------------------------|


                                     
 
-------------------|--------------------|
--5----------------|--7-----------------| 3x
-------------------|-----------5--------|

        
-------------------|--------------------|
-------------------|-----------7--------|
--5----------------|--7-----------------|
-------------------|--------------------|


 
------------------------|--------------------|
------------------------|--------------------| 2x
--5---------------------|--7--------0--------|
------------------------|--------------------|


--------------------------|--------------------|
--------------------------|-----------7--------|
--5-----------------------|--7-----------------|
--------------------------|--------------------|

 
--------------------|---------------------|
--3-----------------|----------------7----|
-----------5--------|---------------------|
--------------------|--5--------5---------|



--------------------|--------------------|--------------------|
--------------------|-----------7--------|--3-----------------|
--5-----------------|--7-----------------|-----------5--------|
--------------------|--------------------|--------------------|


 
----------------------|
----------------------|
----------------------|
--5----5----5----5----|


Refrain
--------------------------|
-----0-----0-----0-----0--|
--------------------------|
--------------------------|

   
--------------------------|--------------------------|
-----2-----2-----2-----2--|-----3-----3-----3-----3--|
--------------------------|--------------------------|
--------------------------|--------------------------|


  
--------------------------|--------------------------|
-----4-----4--------------|--------------------------|
-----------------5-----5--|--------------------------|
--------------------------|-----3-----3-----3-----3--|


   
--------------------------|--------------------------|----------------------|
-----6-----6-----6-----6--|-----3-----3-----3-----3--|----------------------|
--------------------------|--------------------------|--1----1----0----0----|
--------------------------|--------------------------|----------------------|


         
-------------------|
-------------------| 7x
-------------------|
-------------------|


   
----------------------|--------7-----7-----7-----|--9-----9-----9-----9-----|
----------------------|--------------------------|--------------------------|
--1----1----0----0----|--5--5-----5-----5-----5--|-----7-----7-----7-----7--|
----------------------|--------------------------|--------------------------|


  
--10-----10-----10-----10-----|--11-----11-----11-----11-----|
------------------------------|------------------------------|
------8------8------8------8--|------9------9------9------9--|
------------------------------|------------------------------|



--------------------------|--------------------------|
--5-----5-----5-----5-----|--6-----6-----6-----6-----|
--------------------------|--------------------------|
-----3-----3-----3-----3--|-----4-----4-----4-----4--|


              
--------------------------|
--3-----3-----3-----3-----|
--------------------------|
-----1-----1-----1-----1--|


----------------------|-------------------|
----------------------|-------------------|
--1----1----0----0----|--5----------------|
----------------------|-------------------|


    
    

0 Commentaires : réagissez !

1 2 3 4 5
2 notes
Notes pour Perdre Et Gagner Basse Tab - (Oxmo Puccino & The Jazzbastards) | Slappyto : 3/5 sur 2 notes
Aucun commentaire !

En Live

Cell a commenté le topic ["recherche" Digitech bass synth wah] de Cell il y a 3 heures
Cell et yvesson ont commenté le topic [Le Topic du Freepost 7] de Vikie il y a 3 heures
Cell a commenté le topic ["recherche" Digitech bass synth wah] de Cell il y a 3 heures
Yvesson a commenté le topic [Amateurs de photographie, bon-jour/soir !] de cha0s-the0ry il y a 17 heures
Yvesson, sam et YannGGP ont commenté le topic [La mort de Slappyto?] de kurt il y a 17 heures
Glimmerkajal vient tout juste de rejoindre la communauté Slappyto. Bienvenue ! il y a 3 jours
Wario a commenté le topic [videothèque des sons] de mr gone il y a 1 semaine
Lebollos59 vient tout juste de rejoindre la communauté Slappyto. Bienvenue ! il y a 1 semaine
GregRock vient tout juste de rejoindre la communauté Slappyto. Bienvenue ! il y a 1 semaine
Chris927 vient tout juste de rejoindre la communauté Slappyto. Bienvenue ! il y a 2 semaines