ConnexionConnexionInscription
B E A D G
157 connectés Aller à Sweepyto Guitare

Pink Floyd - Money - 2

Publié par le
12/08/2006
51311 vues
Débutant 3
Vitesse NormaleNormal speed Vitesse RalentieSlow down speed
                                          
G||--------------------------------------|
D||--------------------------------------|
A||--2--2--2--2--2--2--2--2--2--2--2--2--|
E||--------------------------------------|



|--------------------------------------|------------------------|
|--------------------------------------|------------------------|
|--2--2--2--2--2--2--2--2--2--2--2--2--|--2--x--5----4----3--0--|
|--------------------------------------|------------------------|



|------------------------|-----------------------|-----------------------|
|------------------------|-----------------------|-----------------------|
|--2--x--5----4----3--0--|--7----6----5----4--x--|--7----6----5----4--x--|
|------------------------|-----------------------|-----------------------|



|------------------------|------------------------|--4----2--------------|
|--------4----3----2-----|--------4----3----2-----|------------5----4----|
|------------------------|------------------------|----------------------|
|--2--x---------------x--|--2--x---------------x--|----------------------|



|----------------------|------------------------|-------------------||
|--2-------------------|------------------------|-------------------||
|-------5----4----3----|--2--x--5----4----3--0--|--2----------------||
|----------------------|------------------------|-------------------||


Voici la suite du groove precendent, la partie du groove ecrite en 4/4 (mesures standards). Roger Waters joue ce plan pendant le solo de David Gilmour. Ici aussi quelques petites difficulté, heureusement ces plans sont lent. En effet les deux premières mesures sont jouées en ternaire pour passer en binaire sur le reste du groove. La mise en place peut prendre du temps mais vous aimez bosser n'est-ce pas? ensuite, Il y a présence de notes morte sur ce plan, notes morte qui nefaut surtout pas zapper car le groove repose essentiellement sur elles. Elle peuvent etre suivi d'un saut de corde, ce qui représentera la principale difficulté de ce plan.

2 Commentaires

1 2 3 4 5
2 notes
Notes pour Money - 2 - Pink Floyd - Cours de basse vidéo | Slappyto : 5/5 sur 2 notes
#2
18/01/2014 15:03:25
>> Palonso ----------------------- >> Question bête le X tout seul il faut le meme pour 2 X ?? Le X est une note morte. c'est à dire que tu joue la corde en l'étouffant avec ta main gauche :)
0
0
#1
21/12/2011 18:20:59
Question bête le X tout seul il faut le meme pour 2 X ??
0
0

En Live

Golmout80 vient tout juste de rejoindre la communauté Slappyto. Bienvenue ! il y a 10 heures
Skydrover a commenté le topic [30 W tout lampes, suffisant ?] de skydrover il y a 11 heures
Skydrover a commenté le topic [30 W tout lampes, suffisant ?] de skydrover il y a 12 heures