ConnexionConnexionInscription
B E A D G
149 connectés Aller à Sweepyto Guitare

Jamiroquai - Runaway - Couplet

Publié par le
22/10/2006
31278 vues
Moyen 1
Vitesse NormaleNormal speed Vitesse RalentieSlow down speed
G|---8-7---------------------------8--|
D|-------10-8------------------6------|
A|3------------------3-----------6----|
E|-------------X-3-4---4-X-1-4--------|

Répéter autant de fois que nécessaire.
Voici le couplet de cette groovesque chanson de Jamiroquai. Pas d'énorme difficulté à noter, sauf à la limite l'enchaînement en bout de manche, avec le bloqué à bien placer avant de le démarrer. Sinon, ça va tout seul et ça fait bouger la tête.

2 Commentaires

1 2 3 4 5
3 notes
Notes pour Runaway - Couplet - Jamiroquai - Cours de basse vidéo | Slappyto : 5/5 sur 3 notes
#2
03/09/2012 13:28:23
G|---8-7----------------------------------8|
D|-------10-8--------------------3---------|
A|3-------------------3---------------6-----|
E|-------------1-3-4---4--X-3-1-----------|

Je connaissais cette version là du riff, mais celle de la vidéo à l'air pas trop mal non plus  
0
+1
#1
21/08/2012 19:44:12

Sympa!! Ca groove bien!! Merci

0
0

En Live

Golmout80 vient tout juste de rejoindre la communauté Slappyto. Bienvenue ! il y a 10 heures
Skydrover a commenté le topic [30 W tout lampes, suffisant ?] de skydrover il y a 11 heures
Skydrover a commenté le topic [30 W tout lampes, suffisant ?] de skydrover il y a 12 heures