ConnexionConnexionInscription
B E A D G
84 connectés Aller à Sweepyto Guitare

Beatles - Penny Lane

Publié par le
05/01/2009
43521 vues
Débutant 2
Vitesse NormaleNormal speed Vitesse RalentieSlow down speed
G-------------|-----------|-----------|----------
D---9-8-------|---------8-|-9-8-------|-9--------
A-------11-9--|-7---9-9---|-----11-9--|----------
E-------------|---9-------|-----------|----------


G-------------|-----------|--------------|---------
D-------------|-----------|-----11-----9-|---------
A---11--------|-10--------|-9-9----9-9---|-7-------
E-------------|-----------|--------------|---7-0---
  

Célèbre chanson des cultissimes Beatles, crée par Lennon et McCartney
Pour info, cette musique date de 1967


Pas trés compliquée à mettre en place (peut être juste un petit effort pour les pointées encore que!)

Jouée à l'origine au médiator et sur la célèbre Höfner Viola Bass du vieux Macca,

Tempo métronome réglé sur 112 à la noire

Aller au boulot

2 Commentaires

1 2 3 4 5
3 notes
Notes pour Penny Lane - Beatles - Cours de basse vidéo | Slappyto : 3/5 sur 3 notes
#2
28/11/2016 00:50:10

Merci c'est nickel

0
0
#1
14/12/2012 18:05:07

C'est bon j'arrive à la faire CHAMPIONNNNNNNN

0
0

En Live

Gwlolos a commenté le topic [problème grésilllemnt ampli] de escaliyo il y a 4 heures
Ray a voté pour le message de Mat 31 il y a 1 jour
Pat et Hipi Débwa ont commenté le topic [Morceaux raggae] de Sasou il y a 1 jour
Sasou vient tout juste de rejoindre la communauté Slappyto. Bienvenue ! il y a 2 jours
Captain Biftek a voté pour le message de briciu il y a 2 jours