ConnexionConnexionInscription
B E A D G
100 connectés Aller à Sweepyto Guitare

Two Door Cinema Club - What you know - couplet

Publié par le
18/11/2010
8739 vues
Débutant 3
Vitesse NormaleNormal speed Vitesse RalentieSlow down speed
  '   '   '   '    '   '   '   '    '   '   '   '    '   '   '   '    '   '   '   '    '   '   '   '   
G----6----6--2--4-|---6----6--2--4-|---4----4--2--4-|---4----4--2--4-|---2----2-------|---2----2-------|-
D-4-----4---------|4-----4---------|2-----2---------|2-----2---------|-----------2--4-|-----------2--4-|-
A-----------------|----------------|----------------|----------------|4-----4---------|4-----4---------|-
E-----------------|----------------|----------------|----------------|----------------|----------------|-


' ' ' ' ' ' ' '
G-----------------|----------------|--
D----4-------4----|---4-------4----|--
A-5-----5-5-----5-|5-----5-5-----5-|--
E-----------------|----------------|--

 

Pas de grande difficulté dans le couplet de ce morceau plein d'énergie, si ce n'est rythmiquement avec quelques notes à contre-temps, mais le rythme est toujours le même, et le premier temps de chaque mesure est jouée sur la fondamentale (dans une gamme, la première est note est la fondamentale), ce qui permet de facilement se repérer.

 

Pour le son, préférez un jeu au médiator énergique, mettez en avant basse et aigus, et compressez à mort.

 

Tags : mediator

0 Commentaires : réagissez !

1 2 3 4 5
4 notes
Notes pour What you know - couplet - Two Door Cinema Club - Cours de basse vidéo | Slappyto : 4/5 sur 4 notes
Aucun commentaire !

En Live

Let5 vient tout juste de rejoindre la communauté Slappyto. Bienvenue ! il y a 4 jours
Gerald44 vient tout juste de rejoindre la communauté Slappyto. Bienvenue ! il y a 5 jours
Coco L'asticot vient tout juste de rejoindre la communauté Slappyto. Bienvenue ! il y a 1 semaine
Martin Charvel vient tout juste de rejoindre la communauté Slappyto. Bienvenue ! il y a 1 semaine
Dabass vient tout juste de rejoindre la communauté Slappyto. Bienvenue ! il y a 1 semaine
Toff… a commenté le dossier de Lisaraël il y a 1 semaine
Toff… vient tout juste de rejoindre la communauté Slappyto. Bienvenue ! il y a 1 semaine
Samy et BasseFab ont commenté le topic [Club des Aria pro II =D] de darkkimhari il y a 2 semaines