ConnexionConnexionInscription
B E A D G
175 connectés Aller à Sweepyto Guitare

The Stranglers - London Lady

Publié par le
12/01/2014
17252 vues
Moyen 4
Vitesse NormaleNormal speed Vitesse RalentieSlow down speed

G|----------------------------------|---------------------------------|
D|----------------------------------|---------------------------------|
A|----------------------------------|---------------------------------|
E|----------------------------------|----------------------------15S--|

(A) x2
G|----------------------------------|---------------------------------|
D|---------10------8---7--------7---|---------12-----10----9--------9-|
A|------------------------10--------|--------------------------12-----|
A|---8------------------------------|---10----------------------------|

G|----------------------------------|--2-------------------0---5---7--|
D|----------5------3---0---3---5----|------5---3---0---3--------------|
A|----------------------------------|---------------------------------|
E|---3------------------------------|---------------------------------|




(B)x4
G|----------------------------------|---------------------------------|
D|----------------------------------|---------------------------------|
A|---3------3------3---3---3---3----|--5------5------5---5---5---5----|
E|----------------------------------|---------------------------------|

G|----------------------------------|---------------------------------|
D|----------------------------------|---------------------------------|
A|----------------------------------|---------------------------------|
E|---3------3------3---3---3---3----|--1------1-------1---1---1---1---|



(C)x2
G|----------------------------------|---------------------------------|
D|----------------------------------|---------------------------------|
A|----------------------------------|---------------------------------|
E|---3---3---3---3---3---3---3---3--|--R------------------------------|



(D)
G|----------------------------------|---------------------------------|
D|----------------------------------|--5---4---2---0------------------|
A|----------------------------------|------------------3---2---0------|
E|---3---3---3---3---3---3---3---3--|------------------------------3--|





(B)x4
G|----------------------------------|---------------------------------|
D|----------------------------------|---------------------------------|
A|---3------3------3---3---3---3----|--5------5------5---5---5---5----|
E|----------------------------------|---------------------------------|

G|----------------------------------|---------------------------------|
D|----------------------------------|---------------------------------|
A|----------------------------------|---------------------------------|
E|---3------3------3---3---3---3----|--1------1-------1---1---1---1---|




(E)x2
G|----------------------------------|---------------------------------|
D|---5---5---5---5---5---5---5----S-|--3---3---3---3---3---3---3----S-|
A|----------------------------------|---------------------------------|
E|----------------------------------|---------------------------------|

G|----------------------------------|---------------------------------|
D|---2---2---2---2---2---2---2----S-|--1---1---1---1---1---1---1----S-|
A|----------------------------------|---------------------------------|
E|----------------------------------|---------------------------------|



(F)x4
G|----------------------------------|---------------------------------|
D|----------------------------------|---------------------------------|
A|----------------------------------|------1--------------------------|
E|---3---3--3---3---3---3---3---3---|--R----------0---1-------1---1---|




(J)
G|----------------------------------|---------------------------------|
D|---5---5---5---5---3---3---3--3---|--2---2---2---2---3---3---3---3--|
A|----------------------------------|---------------------------------|
E|----------------------------------|---------------------------------|

Bassiste co-fondafeur du groupe The Stranglers (1977) , Jean-Jacques Burnel a développé un style qui le place parmi les références de la basse rock. Un jeux rapide, souvent agressif et quasiment toujours au médiator
Ici un titre de leur début.
Pour l'intro ça a tendance a être un peu hard niveau vitesse mais après c'est le rythme de croisière tranquillou.

Tags : médiator

1 Commentaire

1 2 3 4 5
1 note
Notes pour London Lady - The Stranglers - Cours de basse vidéo | Slappyto : 5/5 sur 1 note
#1
15/01/2014 19:20:31
Excellente idée ce morceau des Stranglers. Typique de Mister Burnel. Merci je vais pouvoir le bosser.
0
+1

En Live

Grobass et Fleadh ont commenté le topic [Le Topic du Freepost 7] de Vikie il y a 1 heure
Grobass, Bronsted et biwulf ont commenté le topic [Choix ampli] de biwulf il y a 1 heure
Grobass et Fleadh ont commenté le topic [[Topic COVERS], à vos basses!!!:)] de JAYSEE99 il y a 1 heure