ConnexionConnexionInscription
B E A D G
139 connectés Aller à Sweepyto Guitare

Red Hot Chili Peppers - Special Secret Song Inside

Publié par le
02/12/2007
29832 vues
Avancé 2
Vitesse NormaleNormal speed Vitesse RalentieSlow down speed
G----------------------------------------
D----------------------------------------
A-5-5-5-5--X-5-3--------5-3---0-5-3-2-3--
E----------------5-3--X-----5------------

G-----------4-5-----|
D-------0-3-----3---|
A-0-3-5-----------2-|
E-------------------|

G---------------------------------------
D---------------------------------------
A-5-5-5-5--X-5-3--------5-3----5-3-0----
E----------------5-3--X-----5--------1--

G-------------------|
D-------------------|
A-------3-2-3--3-0--|
E-0-1-3-------------|
J'aurai pu prendre la version originale pour ce plan mais j'ai préféré prendre la version concert pour une raison : ça se joue beaucoup plus vite, donc jouez le jeu !!! Il faut que ça groove, ça dépote, et que ça soit rapide et précis. Personnellement, je trouve ce plan démoniaque (:|=| ( il est moche ce smiley non ? mdr )

0 Commentaires : réagissez !

1 2 3 4 5
2 notes
Notes pour Special Secret Song Inside - Red Hot Chili Peppers - Cours de basse vidéo | Slappyto : 5/5 sur 2 notes
Aucun commentaire !

En Live

Flea888 vient tout juste de rejoindre la communauté Slappyto. Bienvenue ! il y a 11 heures
Skydrover a commenté le topic [30 W tout lampes, suffisant ?] de skydrover il y a 12 heures
Golmout80 vient tout juste de rejoindre la communauté Slappyto. Bienvenue ! il y a 22 heures
Skydrover a commenté le topic [30 W tout lampes, suffisant ?] de skydrover il y a 23 heures