ConnexionConnexionInscription
B E A D G
158 connectés Aller à Sweepyto Guitare

Red Hot Chili Peppers - Stone Cold Bush

Publié par le
02/12/2007
33666 vues
Avancé 2
Vitesse NormaleNormal speed Vitesse RalentieSlow down speed
G-----------|-----------|-----------|------------|
D-----------|-----------|-----------|------------|
A-----------|-----------|-----------|------------|
E-3-1-0-1-3-|-3-1-0-1-3-|-3-1-0-1-3-|-3--0--1--2-|

G-----------|-----------|---5---5-3-|-----------|
D-----------|-----------|-5---5-----|-----------|
A-----------|-----------|-----------|---3---3-1-|
E-3-1-0-1-3-|-3-1-0-1-3-|-----------|-3---3-----|
Après l'effort, le réconfort :o) . En ce qui concerne la tab, c'est pas bien dur...Par contre ça va très vite et il faut obligatoirement manger vos cordes hihihihihi BOUM ! J'ai peut être pas dit grand chose mais c'est pas pour ça que vous allez pas en baver Héhéhéhéhé.

2 Commentaires

1 2 3 4 5
1 note
Notes pour Stone Cold Bush - Red Hot Chili Peppers - Cours de basse vidéo | Slappyto : 5/5 sur 1 note
#2
31/01/2013 23:58:01

Bah au début c'est un peu chaud si on est pas habitué mais bon après ça rentre bien   

0
0
#1
07/09/2012 22:12:26

oulaa le début passe mais je galère tellement sur le la fin du plan sur les cordes de la ré et sol!   allez, au boulot!

 

0
+1

En Live

Remitobass vient tout juste de rejoindre la communauté Slappyto. Bienvenue ! il y a 9 heures
Papihendrix vient tout juste de rejoindre la communauté Slappyto. Bienvenue ! il y a 3 jours
Services vient tout juste de rejoindre la communauté Slappyto. Bienvenue ! il y a 1 semaine
Haga187 vient tout juste de rejoindre la communauté Slappyto. Bienvenue ! il y a 1 semaine
Aline vient tout juste de rejoindre la communauté Slappyto. Bienvenue ! il y a 1 semaine
Spa53 vient tout juste de rejoindre la communauté Slappyto. Bienvenue ! il y a 3 semaines