ConnexionConnexionInscription
B E A D G
129 connectés Aller à Sweepyto Guitare

Jamiroquai - Main vein (Intro)

Publié par le
30/03/2006
44540 vues
Débutant 3
Vitesse NormaleNormal speed Vitesse RalentieSlow down speed
G------|----------|----------|----------|----------|
D------|----------|----------|----------|----------|
A--5-5-|-5----5-5-|-5----5-5-|-5----5-5-|-5----5-5-|
E------|----------|----------|----------|----------|

G------------------------|-----------------------|
D------------------------|-10--12----------------|
A--8-8---5-5-5-5--5-/-10-|---------5-5-5-5---5-5-|
E------------------------|-----------------------|

G------------------------|------------------|
D------------------------|-10--12-----------|
A--8-8---5-5-5-5--5-/-10-|---------5-5-5-5--|
E------------------------|------------------|
Ce morceau est un très bon exo pour bosser la rapidité main droite (pour les droitiers) sur une seule corde en faisant des doubles croches nettes et précises. Il y a trois temps entre chaque série de trois notes que j'ai marqués en tapant avec la main droite pour vous aider à visualiser les silences ;-) Soignez le glissé et commencez à apprendre ce riff lentement au début en accélérant P.R.O.G.R.E.S.S.I.V.E.M.E.N.T. C'est la clef pour s'assurer un jeu rapide et propre par la suite,... C'est à vous ... ;-)

0 Commentaires : réagissez !

1 2 3 4 5
1 note
Notes pour Main vein (Intro) - Jamiroquai - Cours de basse vidéo | Slappyto : 5/5 sur 1 note
Aucun commentaire !

En Live

Iscou vient tout juste de rejoindre la communauté Slappyto. Bienvenue ! il y a 2 jours
Avamak vient tout juste de rejoindre la communauté Slappyto. Bienvenue ! il y a 4 jours
Fissur79 vient tout juste de rejoindre la communauté Slappyto. Bienvenue ! il y a 4 jours
Franchement, Wario, grobass, bassman59 et Angel ont commenté le topic [Micros.] de Franchement il y a 5 jours
Philbass02 vient tout juste de rejoindre la communauté Slappyto. Bienvenue ! il y a 1 semaine
Fredbasse50 vient tout juste de rejoindre la communauté Slappyto. Bienvenue ! il y a 1 semaine