ConnexionConnexionInscription
B E A D G
184 connectés Aller à Sweepyto Guitare

Kings Of Leon - Birthday [ Artiste ]

Publié par le
11/11/2010
3981 vues
Débutant 2
    
        

Tuning Standard (E A D G)
   
   0:16
G|------------------------------------------------------------------------|
D|------------------------------------------------------------------------|
A|----5-7-----5-7---99-7-5---99-7-5------5-7-----5-7---99-7-5---99-7-5----|
E|--7------77-------------------------77------77--------------------------|

G|------------------------------------------------------------------------|
D|------------------------------------------------------------------------|
A|----5-7-----5-7---99-7-5---99-7-5------5-7-----5-7---99-7-5---99-7-5----|  x2
E|-77------77-------------------------77------77--------------------------|
   
  1:05
G|------------------------------------------------------------------------|
D|------------------------------------------------------------------------|
A|------------------------------------------------------------------------|
E|-3333-3333-3333-3333-7777-7777-7777-7777--------------------------------|

G|------------------------------------------------------------------------|
D|------------------------------------------------------------------------|
A|-------------------------------9-7-5------------------------------------|
E|-3333-3333-3333-3333-7777-7777------------------------------------------|

  1:21
G|------------------------------------------------------------------------|
D|-----------------------------7-9----------------------------------------|
A|-----57-----5-^7---99-7-5---99------------------------------------------| 
E|--7------77-------------------------------------------------------------|

G|------------------------------------------------------------------------|
D|------------------------------------------------------------------------|
A|----5-7-----5-7---99-7-5---99-7-5------5-7------5-7---99-7-5---99-7-5---|  x2
E|-77------77-------------------------77------77--------------------------|

  2:01
G|------------------------------------------------------------------------|
D|------------------------------------------------------------------------|
A|------------------------------------------------------------------------|
E|-3333-3333-3333-3333-7777-7777-7777-7777--------------------------------|

G|------------------------------------------------------------------------|
D|------------------------------------------------------------------------|
A|-------------------------------9-7-5------------------------------------|
E|-3333-3333-3333-3333-7777-7777------------------------------------------|

  2:17
G|------------------------------------------------------------------------|
D|--------------------7-9---------------------------------7-9-------------|
A|----5-7-----5-7---99-----99-7-5---------5-7-----5-^7---99-----99-7-5----| 
E|--7------77-------------------------77-------77-------------------------|

  2:33
G|------------------------------------------------------------------------|
D|------------------------------------------------------------------------|
A|------------------------------------------------------------------------|
E|--3--------------------------7------------------------------------------|

  2:41
G|------------------------------------------------------------------------|
D|------------------------------------------------------------------------|
A|------------------------------------------------------------------------|  x2
E|-3333-3333-3333-3333-7777-7777-7777-7777--------------------------------|

  2:57
G|------------------------------------------------------------------------|
D|------------------------------------------------------------------------|
A|-5555-5555-5555-5555-7777-7777-9-7-5------------------------------------|
E|------------------------------------------------------------------------|

  3:06
G|------------------------------------------------------------------------|
D|---------------------7-9------------------------------------------------|
A|---5-7------5-7---99----------------------------------------------------| 
E|-7------77--------------------------------------------------------------|


Source : http://tabs.ultimate-guitar.com/k/kings_of_leon/birthday_btab.htm ( quelques modifs )

    
    

1 Commentaire

1 2 3 4 5
0 notes
#1
17/11/2010 12:21:20
heu, en gros tu nous fais un copy/paste ?
0
0
Tablatures précédentes

En Live

Zheng a commenté le topic [Compô du soir] de erix il y a 1 jour
Zheng1 vient tout juste de rejoindre la communauté Slappyto. Bienvenue ! il y a 1 jour
BASS50 a commenté le topic [diqitech Jaman Express XT 35€ fdp In] de matultimat il y a 3 jours
Totoribus vient tout juste de rejoindre la communauté Slappyto. Bienvenue ! il y a 3 jours
Oiseauvert vient tout juste de rejoindre la communauté Slappyto. Bienvenue ! il y a 5 jours
Fionamoon223 vient tout juste de rejoindre la communauté Slappyto. Bienvenue ! il y a 5 jours
Bounbass vient tout juste de rejoindre la communauté Slappyto. Bienvenue ! il y a 5 jours
Sebmetz vient tout juste de rejoindre la communauté Slappyto. Bienvenue ! il y a 1 semaine
Bilbaroud a voté pour le message de grobass il y a 1 semaine
Zora a voté pour la tablature de Camarade il y a 1 semaine