ConnexionConnexionInscription
B E A D G
118 connectés Aller à Sweepyto Guitare

Deep Purple - Smoke On The Water [ Artiste ]

Publié par le
09/03/2011
26985 vues
Moyen 2
http://www.youtube.com/watch?v=9f7LwuVF8Oo
    
        

    Intro:
            (x15)
    |-----------|-------------|
    |*---------*|-------------|
    |*---------*|-------------|
    |-----------|-------0-1-2-|
     
    
    Riff 1:
    |-----------------|-----------------|-----------------|
    |-----------------|-----------------|-----------------|
    |-----------------|-----------------|---------3-3-3-1-|
    |-3-3-3-3-3-3-3-3-|-3-3-3-3-3-3-3-3-|-3-3-3-3---------|
    
    
    |-----------------|
    |-----------------|
    |-----------------|
    |-3-3-3-3-3-3-1-2-|
     
    
    Riff 2:
    |-----------------|-----------------|-----------------|
    |-----------------|-----------------|-----------------|
    |-----------------|-----------------|---------3-3-3-1-|
    |-3-3-3-3-3-3-3-3-|-3-3-3-3-3-3-3-3-|-3-3-3-3---------|
   
    
    |-----------------|
    |---------5-3-----|
    |-1-------------5-|
    |---3-3-3---------|
     
    
    Verse:
    |-------------|---------------|---------------|-----------------|
    |-----5-----5-|-----5---------|-----5-3-------|---------5-------|
    |---5-----5---|---5---1-1-3-5-|---5-----3-----|---1-3-5---5-3-1-|
    |-3-----3-----|-3-------------|-3---------1-3-|-3---------------|
     
    
    |-------------|---------------|-------------|-----------------|
    |-----5-----5-|-----5---5---5-|-----5-3-----|-----------------|
    |---5-----5---|---5---5---5---|---5-----3---|---5-4-3-1-------|
    |-3-----3-----|-3-------------|-3---------1-|-3---------3-1-2-|
     
    
    |-------------|-----------------|---------------|---------------|
    |-----5-----5-|---5-3-----------|-----5-3-------|---5-3---------|
    |---5-----5---|-------5-3-1-----|---5-----3-----|-------5-3---3-|
    |-3-----3-----|-3-----------3-1-|-3---------1-1-|-3---------3---|
     
    
    |-------------|-----------------|-------------|-----------------|
    |-----5-----5-|---5-----3-------|-----5-3-----|-----5-3---------|
    |---5-----5---|-----3-5---5-3-5-|---5-----3---|---------5-3-----|
    |-3-----3-----|-3---------------|-3---------1-|-3-3---------3-1-|
     
    
    Chorus:
    |---------|---------|-----------------|---------------|
    |---------|---------|-----------------|---------------|
    |-3-------|---------|-----1---1-------|-----1---1-----|
    |---------|-4-------|-3-3---3---3-1-3-|-3-3---3---3-1-|
      
    
    |---------|---------|
    |---------|---------|
    |-3-------|---------|
    |---------|-4-------|
    
    
    Solo:
    |------------------|-----------------|-----------------|
    |*---------5-3-----|-----------------|---1-3-5-3-1-----|
    |*---1-3-5-----5-3-|-1---------1-3-5-|-3-----------3-1-|
    |--3---------------|---3-1-2-3-------|-----------------|
      
    
    |------------------|
    |---5-3---------3-*|
    |-------5-1-3-5---*|(x4)
    |-3----------------|
     
    
    |---------|---------|---------|-------------|
    |---------|---------|---------|-------------|
    |-3-------|---------|---------|-------------|
    |---------|---------|-1-------|-------0-1-2-| 
    
    

0 Commentaires : réagissez !

1 2 3 4 5
6 notes
Notes pour Smoke On The Water Basse Tab - (Deep Purple) | Slappyto : 4/5 sur 6 notes
Aucun commentaire !

En Live

Saikodoll vient tout juste de rejoindre la communauté Slappyto. Bienvenue ! il y a 2 jours
Bertrand44 vient tout juste de rejoindre la communauté Slappyto. Bienvenue ! il y a 3 jours
OLIVIER59500 vient tout juste de rejoindre la communauté Slappyto. Bienvenue ! il y a 3 jours
Jazzbassfoufou vient tout juste de rejoindre la communauté Slappyto. Bienvenue ! il y a 4 jours
MrSpit a commenté le topic [Sandberg Fretless] de MrSpit il y a 4 jours