ConnexionConnexionInscription
B E A D G
94 connectés Aller à Sweepyto Guitare

The Cure - Killing An Arab [ Artiste ]

Publié par le
09/03/2011
6730 vues
Débutant 2
http://www.dailymotion.com/video/xdfwf_the-cure...
    
        

n Arab Bass Tab 
"Killing An Arab" by The Cure
=============================

transcribed by Gilles Velay 

Notation :
	h : half	R : rest
	q : quarter	 : slide down
	e : 8th		^^: triplets


Pattern I
=========
    e   e   e   e   e   e   e   e        e   e   e   e   e   e   e   e
G-|---------7---------------6----------|---------5---------------4------------|
D-|-9---9-------9--8---8-------8-----|-7---7-------7--6---6-------6-------|
A-|------------------------------------|--------------------------------------|
E-|------------------------------------|--------------------------------------|

    e   e   e   e   e   e   e   e        e   e   e   e   h
G-|---------3---------------2----------|---------1----------------------------|
D-|-5---5-------5--4---4-------4-----|-3---3-------3--2--------------------|
A-|------------------------------------|--------------------------------------|
E-|------------------------------------|--------------------------------------|


Pattern II
==========
    e   e   e   e   e   e   e   e        e   e   e^^e^^e   q      q
G-|------------------------------------|--------------------------------------|
D-|-2---2---2-------2---2---2---2------|-----2---2-----2---3------6----------|
A-|-------------R----------------------|-R----------R-------------------------|
E-|------------------------------------|--------------------------------------|


Pattern III
===========
    e   e   e   e   e   e   e   e        e   e   e^^e^^e   q      q
G-|------------------------------------|--------------------------------------|
D-|-7---7---7-------7---7---7---7------|-----7---7-----7---8------11---------|
A-|-------------R----------------------|-R----------R-------------------------|
E-|------------------------------------|--------------------------------------|


Intro :		Drums & Guitar
		Pattern I
		Pattern II  (x4)

1st Verse :	Pattern II  (x4)

Chorus :	Pattern III (x2)
		Pattern II  (x2)

2nd Verse : 	same as 1st

Chorus.

Instrumental bridge :	Pattern II    (x4)
			Pattern III   (x2)
			Pattern II    (x4)

3rd Verse :	same as 1st

Chorus.

Outro :		Pattern II  (x4)
		Pattern I
		Guitar ends.



    
    

3 Commentaires

1 2 3 4 5
2 notes
Notes pour Killing An Arab Basse Tab - (The Cure) | Slappyto : 5/5 sur 2 notes
#3
10/03/2011 18:36:37
aplique toi pour l'intro
feniasse
0
0
#2
09/03/2011 14:34:54
c l intro pour tous çeux qui  connaisse le morceau
0
0
#1
09/03/2011 14:32:13
G|7-8-7-5-------------|77-8--11--8-7-8--7--5--7-|----------------|----------------|
D|----------------|----------------|----------------|----------------|
A|----------------|----------------|----------------|----------------|
E|----------------|----------------|----------------|----------------|
0
0

En Live

Poopeye vient tout juste de rejoindre la communauté Slappyto. Bienvenue ! il y a 3 heures
Slapiso vient tout juste de rejoindre la communauté Slappyto. Bienvenue ! il y a 9 heures
MC82 a commenté le topic [Choix tête < 500€] de greg1721 il y a 11 heures
MC82 et FunkDaFied ont commenté le topic [Bruit bizarre TC Electronic BG250] de PatG il y a 11 heures
Toine0666 vient tout juste de rejoindre la communauté Slappyto. Bienvenue ! il y a 15 heures
Plagio vient tout juste de rejoindre la communauté Slappyto. Bienvenue ! il y a 19 heures
JeanPhi a voté pour le message de Pasc74 il y a 23 heures
JeanPhi vient tout juste de rejoindre la communauté Slappyto. Bienvenue ! il y a 1 jour
Wario et kurgan ont commenté le topic [GL Kiloton US 890€] de Wario il y a 1 jour