ConnexionConnexionInscription
B E A D G
108 connectés Aller à Sweepyto Guitare

Jimi Hendrix - Fire [ Artiste ]

Publié par le
26/03/2011
6858 vues
Débutant 4
http://www.youtube.com/watch?v=U88KuWxayLg
    
        

Intro/Pont

G[-----------------[
D|-6--5----3-5-----|
A|-------------5-5-| x2
E]-----------------]

Couplet

G[-----------------[
D|-----------------|
A|---3-5-5---------|
E]-5---------------]

Variation du Couplet

G[-----------------[
D|-----------------|
A|---3-4-5---------|
E]-5---------------]

Refrain (utilisez le petit doigt pour les 5 de préférence)

G[-----------------[---------------[
D|-----------------|---------------|
A|-5--5------------|---2-2-3-3-4-4-|
E]-------2-3-4-5---]-5-------------]

Pont

G[-----------------[-----------------[-----------------[-----------------[
D|-----------------|-----------------|-----------------|-----------------|
A|-5-5-5-5-5-5-5-5-|-5-5-5-5-5-5-5-5-|-3-3-3-3-3-3-3-3-|-3-3-3-3-3-3-3-3-|
E]-----------------]-----------------]-----------------]-----------------]

G[-----------------[-----------------[-----------------[-----------------[
D|-7-7-7-7-7-7-7-7-|-7-7-7-7-7-7-7-7-|-----------------|-----------------|
A|-----------------|-----------------|-3-3-3-3-3-3-3-3-|-3-3-3-3-3-3-3-3-|
E]-----------------]-----------------]-----------------]-----------------]

Variation du Refrain (Alterne avec le refrain normal)

G[-----------------[---------------[
D|-----------------|---------------|
A|-7--7------------|---4-4-5-5-6-6-|
E]-------4-5-6-7---]-7-------------]
    
    

1 Commentaire

1 2 3 4 5
3 notes
Notes pour Fire Basse Tab - (Jimi Hendrix) | Slappyto : 4/5 sur 3 notes
#1
31/03/2011 20:24:01
.
0
0

En Live

Jazzbassfoufou vient tout juste de rejoindre la communauté Slappyto. Bienvenue ! il y a 16 heures
MrSpit a commenté le topic [Sandberg Fretless] de MrSpit il y a 20 heures
Sasam a commenté le wall de deni's il y a 4 jours