ConnexionConnexionInscription
B E A D G
131 connectés Aller à Sweepyto Guitare

Noir Désir - Aux Sombres Héros de l'Amer [ Artiste ]

Publié par le
07/04/2011
18547 vues
Débutant 1
http://www.youtube.com/watch?v=UfQz-9olu_g
    
        

 
Song: Aux Sombres Héros de l'Amer
Artist: Noir Désir


|   	Intro
G --------------------|---------------------
D -----------2--5-----|-----------2--5--3---
A --0--2--3--------3--|--0--2--3------------
E --------------------|---------------------

	Verses
G --------------------|
D -----------2--5-----|
A --0--2--3--------3--|		x2
E --------------------|

	Chorus
G -----------------|-------------------|
D ---------0-2-3-2-|-------0-2-3-------|
A --0-2-3---------3|-0-2-3-------------|	x2
E -----------------|-------------3--4--|

Harmonica Solo and Ending
G----------------------|
D-----------2--5--3--2-|
A--0--2--3------------3|	x4		
E----------------------|

    
    

0 Commentaires : réagissez !

1 2 3 4 5
0 notes
Aucun commentaire !

En Live

Wario a commenté le topic [videothèque des sons] de mr gone il y a 5 jours
Lebollos59 vient tout juste de rejoindre la communauté Slappyto. Bienvenue ! il y a 5 jours
GregRock vient tout juste de rejoindre la communauté Slappyto. Bienvenue ! il y a 6 jours
Chris927 vient tout juste de rejoindre la communauté Slappyto. Bienvenue ! il y a 1 semaine
Greeshma vient tout juste de rejoindre la communauté Slappyto. Bienvenue ! il y a 1 semaine
Ludo ZEFISH vient tout juste de rejoindre la communauté Slappyto. Bienvenue ! il y a 1 semaine
Nicobass1793 vient tout juste de rejoindre la communauté Slappyto. Bienvenue ! il y a 1 semaine
Indonesiae vient tout juste de rejoindre la communauté Slappyto. Bienvenue ! il y a 1 semaine
Grandbill a commenté la tablature de Coup_de_pelle il y a 1 semaine