ConnexionConnexionInscription
B E A D G
120 connectés Aller à Sweepyto Guitare

The Korgis - Everybody's Got to Learn Sometime [ Artiste ]

Publié par le
30/03/2011
6965 vues
Débutant 1
http://www.youtube.com/watch?v=czrdBRWdqHo
    
        

**************************************************
* The Korgis : Everybody's Got to Learn Sometime *
**************************************************

mesure = 4/4, tempo = 74, subdivision (-) = croche
suggestion de réglages :
    micro : 100% manche
    EQ = 100% bass / 50% mid / 50% treble

Intro :
 |: 2x   :|
G|--------|
D|--------|
A|--------|
E|--------|

Couplet :
 |: 10x  :|
G|--------|--------|--------|
D|--------|--------|--------|
A|--------|--------|2-------|
E|--------|2-------|--------|

Refrain :
G|--------|--------|--------|--------|--------|--------|
D|--------|--------|--------|--------|--------|--------|
A|--------|--4-6---|--------|--4-6---|--------|--4-6---|
E|4--45---|5-------|4---5---|--------|4---5---|--------|

Pont
G|--------|--------|
D|--------|--------|
A|+-------|--------|
E|--------|--------|

Couplet 2 :
G|--------|--------|--------|--------|--------|--------|
D|--------|--------|--------|--------|--------|--------|
A|4-------|--------|4-------|--------|4-------|--------|
E|-------7|6--65---|-------7|6---5---|-------7|6---5---|

G|--------|--------|--------|--------|--------|--------|
D|--------|--------|--------|6--6----|--------|--------|
A|4-------|--------|4------4|--------|--------|2-------|
E|-------7|6--65---|--------|----4---|2------2|--------|

Refrain
Couplet 2
Refrain
Pont

Refrain 2 :
G|--------|--------|--------|--------|--------|--------|
D|--------|--------|--------|--------|--------|--------|
A|--------|--4-6---|--------|--4-6---|--------|--4-6---|
E|4---5---|5-------|4--45---|5-------|4---5---|5-------|

Pont
Refrain 2 >
Pont

=========================================================================================================================
Légende : + = étouffer la corde (stopper le son)
          |: Nx :| = répéter N fois le passage entre |: et :|
          > = en diminuant le volume
=========================================================================================================================

Visitez http://www.ilovetabs.com pour d'autres tablatures "+R" pour guitare basse.

    
    

0 Commentaires : réagissez !

1 2 3 4 5
0 notes
Aucun commentaire !

En Live

Jargenty vient tout juste de rejoindre la communauté Slappyto. Bienvenue ! il y a 9 heures
Parabellum vient tout juste de rejoindre la communauté Slappyto. Bienvenue ! il y a 15 heures
Kichidoll vient tout juste de rejoindre la communauté Slappyto. Bienvenue ! il y a 16 heures
Gozo et koches ont commenté le topic [vds WARWICK Corvette std MIG 650€] de gozo il y a 16 heures
Jeanco a commenté le topic [Jabba Mayones 5 - 850 € - VENDUE] de Donkibass il y a 17 heures
CZout vient tout juste de rejoindre la communauté Slappyto. Bienvenue ! il y a 1 jour
Seby1 a commenté le topic [problème avec mon ME-50B] de shura361 il y a 2 jours
Seby1 a commenté le topic [Compartiment piles jazzbass] de Seby1 il y a 2 jours
Solrelami vient tout juste de rejoindre la communauté Slappyto. Bienvenue ! il y a 2 jours