ConnexionConnexionInscription
B E A D G
153 connectés Aller à Sweepyto Guitare

Diving with Andy - Sugar Sugar [ Artiste ]

Publié par le
07/04/2011
3182 vues
Moyen 4
http://www.youtube.com/watch?v=Q1RRqAQ7oAU
    
        

**********************************
* Diving With Andy : Sugar Sugar *
**********************************

mesure = 2/4, tempo = 98, subdivision (-) = double-croche
suggestion de réglages :
    micro : 50% manche / 50% chevalet
    EQ = 0% bass / 50% mid / 50% treble

Intro :
G|--------|--------|--------|--------|--------|--------|--------|
D|--------|--------|--------|--------|--------|-3------|--------|
A|--------|2-2-+---|--------|2-2-+---|--------|2-2-+---|B-\-----|
E|4---+-4-|--------|4---+-4-|--------|4---+-4-|--------|----4-+-|

Couplet :
G|--------|--------|--------|--------|--------|--------|--------|--------|
D|--------|-3------|------5-|+-------|--------|-3------|--------|2-2-+---|
A|4---+---|4-4+----|4---+---|--4-+-3-|2---+---|2-2-+---|------2-|------2-|
E|--------|------4-|--------|--------|------2-|------1-|0---+---|--------|

G|--------|--------|--------|--------|--------|--------|--------|--------|
D|--------|--9-+---|--------|--------|--------|--------|--------|--------|
A|5---+-5-|+-----5-|6---+---|6-6---+-|--------|2-2-+---|B-\-----|--------|
E|--------|--------|------6-|--------|4---+-4-|--------|----4-+-|--------|

Couplet 2 :
G|--------|--------|--------|--------|--------|--------|--------|--------|
D|--------|-3------|------5-|+-------|--------|-3------|--------|--2-+---|
A|4---+---|4-4+----|4---+---|--4-+-43|2---+---|--2-----|------2-|+-----2-|
E|--------|------4-|--------|--------|------2-|+---1-0-|----+---|--------|

G|--------|--------|--------|--------|--------|--------|--------|--------|
D|--------|--9---+-|--------|--------|--------|--------|----2-2-|1-1-----|
A|5---+-5-|+-------|6---+---|6-6---+-|--------|2-2-+---|+-0-----|----2---|
E|--------|--------|------6-|--------|4---+-4-|--------|--------|------3-|

Refrain :
G|--------|--------|--------|--------|--------|--------|--------|--------|
D|--------|--------|--------|--------|--------|--------|--------|--------|
A|----B-B-|9-9-----|----E-E-|C-C-----|----J-JJ|I-II----|----I---|G-GGI-I\|
E|4-4/----|----B-B-|7-7/----|-----E-E|C-C/----|----J-J\|B-B/--I-|--------|

G|--------|--------|--------|--------|--------|--------|--------|--------|--------|--------|--------|--------|
D|--------|--------|----B-BB|--------|9-9-9-98|--------|9-9-9-96|--------|7-7-7-7-|7-7-7-7-|--------|--------|
A|----B-B-|9-9-----|--------|9-9-B-9-|--------|7-779-7-|--------|7-779-7-|--------|--------|6\--+---|--------|
E|4-4/----|----B-B-|9-9-----|--------|--------|--------|--------|--------|--------|--------|--------|--------|

Couplet 3 :
G|--------|--------|--------|--------|--------|--------|--------|--------|
D|--------|-3------|------5-|+-------|--------|-3------|2---+---|--2-+---|
A|4-4-+---|4-4+----|4---+---|--4-+-3-|2-2-+---|2-2-+---|------2-|+-----2-|
E|--------|------4-|--------|--------|------2-|------0-|--------|--------|

G|--------|--------|--------|--------|--------|--------|--------|--------|
D|--------|--9-+---|--------|--------|--------|--------|--------|--------|
A|5---+-5-|+-----5-|6---+---|676---+-|--------|2-2-+---|B-\-----|--------|
E|--------|--------|------6-|--------|4---+-4-|--------|----4-+-|--------|

Couplet 4 :
G|--------|--------|--------|--------|--------|--------|--------|--------|
D|--------|-3------|------5-|+-------|--------|-3------|--------|--2-+---|
A|4---+---|4-4+----|4---+---|--4-+-43|2---+---|--2-----|------2-|+-----2-|
E|--------|------4-|--------|--------|------2-|+---1-0-|----+---|--------|

G|--------|--------|--------|--------|--------|--------|--------|--------|
D|--------|--9-\---|--------|--------|--------|--------|----2-2-|1-1-----|
A|5---+-5-|+-----5-|6---+---|6-6---+-|--------|2-2-+---|+-0-----|----2---|
E|--------|--------|------6-|--------|4---+-4-|--------|--------|------3-|

Refrain 2 :
G|--------|--------|--------|--------|--------|--------|--------|--------|
D|--------|--------|--------|--------|--------|--------|--------|--------|
A|----B-BB|9999----|----E-EE|C-C-----|----J-JJ|I-I-----|----I---|G-GGI-I\|
E|4-4/----|----B-B-|7-7/----|-----E-E|C-C/----|----J-J\|B-B/--I-|--------|

G|--------|--------|--------|--------|--------|--------|--------|--------|--------|--------|--------|--------|
D|--------|--------|----B-BB|--------|9-9-9-6-|--------|9-9-9-96|--------|7-7-7-7-|7-7-7-7-|--------|--------|
A|----B-B-|9-9-----|--------|9-9-B-9-|--------|7-7-9-7-|--------|7-7-9-7-|--------|--------|6\--+---|--------|
E|4-4/----|----B-B-|9-9-----|--------|--------|--------|--------|--------|--------|--------|--------|--------|

Pont :
 |: 24x  :|: 5X                      |1      :|2      :|3      :|4      :|5         
G|--------|----D---|C-C-9---|8-8-----|--------|--------|--------|--------|--------|----D---|C-C-9---|--------|--------|
D|--------|--9---9-|------9-|----9-9-|6-6-----|6-------|6-------|6-6-----|6-6-----|--9---9-|------9-|B\------|--------|
A|--------|7-------|--------|--------|----4---|------6-|----6-6-|------6-|----6---|7-------|--------|----6\-+|--------|
E|--------|--------|--------|--------|------4-|--6-7---|--4-----|----7---|------7-|--------|--------|--------|--------|

Finale :
G|--------|--------|--------|--------|--------|--------|--------|--------|
D|--------|-3------|--------|-3------|--------|04------|--------|-4------|
A|4-4-+---|4-4-+---|4-4-+---|4-4-+-2-|--------|--2-----|--------|6-6-----|
E|--------|------4+|--------|--------|4-4-+-4-|--------|4-4-+-4-|--------|

  >
G|--------|--------|--------|--------|--------|--------|--------|--------|
D|--------|-3------|------5-|+2------|--------|04------|--------|--------|
A|4-4-+---|4-4-+---|4-4-+---|--4---2-|--------|--2-----|--------|--------|
E|--------|------4+|--------|--------|4-4-+-4-|--------|4-+-----|--------|

=========================================================================================================================
Légende : A=10,B=11,C=12,D=13,E=14,F=15,G=16,H=17,I=18,J=19,...
          + = étouffer la corde (stopper le son)
          X = note jouée étouffée (ghost note)
          \ = glissé vers le bas
          / = glissé vers le haut
          |: Nx :| = répéter N fois le passage entre |: et :|
          |: 2x  |1    :|2     | = lors du premier passage, jouer 1, lors du second passage, jouer 2
          > = en diminuant le volume
=========================================================================================================================

Visitez http://www.ilovetabs.com pour d'autres tablatures "+R" pour guitare basse.

    
    

0 Commentaires : réagissez !

1 2 3 4 5
0 notes
Aucun commentaire !

En Live

Yvesson a commenté le topic [Amateurs de photographie, bon-jour/soir !] de cha0s-the0ry il y a 45 minutes
Yvesson a commenté le topic [Le Topic du Freepost 7] de Vikie il y a 53 minutes
Yvesson, sam et YannGGP ont commenté le topic [La mort de Slappyto?] de kurt il y a 54 minutes
Glimmerkajal vient tout juste de rejoindre la communauté Slappyto. Bienvenue ! il y a 2 jours
Wario a commenté le topic [videothèque des sons] de mr gone il y a 1 semaine
Lebollos59 vient tout juste de rejoindre la communauté Slappyto. Bienvenue ! il y a 1 semaine
GregRock vient tout juste de rejoindre la communauté Slappyto. Bienvenue ! il y a 1 semaine
Chris927 vient tout juste de rejoindre la communauté Slappyto. Bienvenue ! il y a 2 semaines
Greeshma vient tout juste de rejoindre la communauté Slappyto. Bienvenue ! il y a 2 semaines