ConnexionConnexionInscription
B E A D G
107 connectés Aller à Sweepyto Guitare

Muse - Micro Cuts [ Artiste ]

Publié par le
14/04/2011
3061 vues
Débutant 4
http://www.youtube.com/watch?v=DlAPkNpS-O8
    
        

Intro

G   -----------------
D 2:-0-0-0-0-0-0-0-0- x8
A 4:-----------------
D   -----------------

Verse

G   ----------------|----------------|----------------|  ----------
D 2:0-0-0-0-0-0-0-0-|2-2-2-2-2-2-2-2-|3-3-3-3-4-4-4-4-|3:5-5-5-5-5-
A 4:----------------|----------------|----------------|4:----------
D   ----------------|----------------|----------------|  ----------

G---------------|------------------------|------------------------|
D-5-5-5-5-5-5-5-|5-5-5-5-5-5-5-5-5-5-5-5-|0-0-0-0-0-0-0-0-0-0-0-0-|
A---------------|------------------------|------------------------|
D---------------|------------------------|------------------------|

G-------------------------|------------------------|---------------
D-------------------------|0-0-0-0-0-0-0-0-0-0-0-0-|0-0-0-0-0-0-0-0
A-4-4-4-4-4-4-4-4-4-4-4-4-|------------------------|---------------
D-------------------------|------------------------|---------------

G---------|
D-0-0-0-0-| Play 3 times, but the last bar of the third repeat play:
A---------|
D---------|

Pre-chorus

G-------------------------|
D-0-0---------------------|
A-------------------------|
D---------7-7-----6-6-----|

Chorus
                                                                   x2
G  ----------------|----------------|----------------|---------------
D2:----------------|----------------|----------------|---------------
A4:----------------|----------------|----------------|---------------
D  5-5-5-5-5-5-5-5-|0-0-0-0-0-0-0-0-|5-5-5-5-5-5-5-5-|5-5-5-5-5-5-5-5

G-----------------|----------------|----------------|----------------
D-----------------|----------------|----------------|----------------
A-----------------|----------------|----------------|----------------
D-5-5-5-5-5-5-5-5-|0-0-0-0-0-0-0-0-|5-5-5-5-5-5-5-5-|6-6-6-6-6-6-6-6-

G-----------------|----------------|----------------|----------------
D-----------------|----------------|----------------|----------------
A-----------------|----------------|----------------|----------------
D-7-7-7-7-7-7-7-7-|7-7-7-7-7-7-7-7-|7-7-7-7-7-7-7-7-|7-7-7-7-7-7-7-7-

Pre-Verse

G-----------------|
D-0-0-0-0-0-0-0-0-| x4
A-----------------|
D-----------------|

Verse 2 - same as verse 1 (play twice with pre-chorus bit at the end
          of the second repeat)

End

    
    

0 Commentaires : réagissez !

1 2 3 4 5
0 notes
Aucun commentaire !

En Live

Saikodoll vient tout juste de rejoindre la communauté Slappyto. Bienvenue ! il y a 2 jours
Bertrand44 vient tout juste de rejoindre la communauté Slappyto. Bienvenue ! il y a 3 jours
OLIVIER59500 vient tout juste de rejoindre la communauté Slappyto. Bienvenue ! il y a 3 jours
Jazzbassfoufou vient tout juste de rejoindre la communauté Slappyto. Bienvenue ! il y a 4 jours
MrSpit a commenté le topic [Sandberg Fretless] de MrSpit il y a 4 jours