ConnexionConnexionInscription
B E A D G
115 connectés Aller à Sweepyto Guitare

Muse - Citizen Erased [ Artiste ]

Publié par le
07/04/2011
6145 vues
Débutant 4
    
        

- Citizen Erased - Muse - Bass tab -

Tried to make it all visible on a single screen. :-)
Apologies if this makes it harder to understand!

Cheers,

Rich


-- Intro --

No bass for a while at the start

-- Verse --

G||------------------------------------|------------------------------------|
D||------------------------------------|------------------------------------|
A||0---0---12---0-12---0-0-0-12-0-0-12-|0---0---10---0-10---0-0-0-10-0-0-10-|
E||------------------------------------|------------------------------------|

G|--------------------------------|--------------------------------||
D|--------------------------------|--------------------------------||
A|0---0---8---0-8---0-0-0-8-0-0-8-|0---0---7---0-7---0-0-0-7-0-0-7-||
E|--------------------------------|--------------------------------|| x6

Play this on the sixth time through: G|--------------------------------|
                                     D|--------------------------------|
                                     A|0---0---7---0-7---7-7-7-7-7-7-7-|
                                     E|--------------------------------|

-- Chorus --

G||--------------------------------|--------------------------------|
D||--------------------------------|----------------7-7-7-7-5-5-5-5-|
A||8-8-8-8-8-8-8-8-----------------|7-7-7-7-7-7-7-7-----------------|
E||----------------8-8-8-8-8-8-8-8-|--------------------------------|

G|--------------------------------|--------------------------------||
D|--------------------------------|--------------------------------||
A|8-8-8-8-8-8-8-8-----------------|7-7-7-7-7-7-7-7-7-7-7-7-7-7-7-7-||
E|----------------8-8-8-8-8-8-8-8-|--------------------------------|| x3

-- Bridge --

G||--------------------------------|--------------------------------||
D||7-7-------------5-5-------------|--------------------------------||
A||--------------------------------|8-8-------------7-7-------------||
E||--------------------------------|--------------------------------|| x7

G||--------------------------------|--------------------------------||
D||------------------------7-7-5-5-|--------------------------------||
A||8-8-------------7-7-------------|8-8-------------7-7-------------||
E||--------8-8---------------------|--------8-8---------------------|| x2

-- Rest for a few bars --

-- Verse again but x2 this time instead of x6 --

-- Chorus again x4 --

-- Outro - *really slow* - written like this to save space --

G||----------------||    G|-------------------------|
D||----5---7-------||    D|----5--------------------|
A||8-----------7---||    A|8-------3---3---3---3----|
E||----------------|| x3 E|-------------------------|

G|--------------------------------|----------------|
D|--------------------------------|----------------|
A|3---------------3---5-----------|------------3---|
E|----5---3---1-----------5---3---|1---1---3-------|

G|--------------------------------|--------------------------------|
D|--------------------------------|------------5-5-5-2-------------|
A|3---------------3---5-----------|----------------------3---------|
E|----5---3---1-----------5---3---|1---1---3-----------------------|



    
    

2 Commentaires

1 2 3 4 5
1 note
Notes pour Citizen Erased Basse Tab - (Muse) | Slappyto : 5/5 sur 1 note
#2
04/03/2012 17:28:21
G||------------------------------------|------------------------------------|
D||------------------------------------|------------------------------------|
A||0---0---12---0-12---12-0-0-12-0-0-12-|0---0---10---0-10---10-0-0-10-0-0-10-|
E||------------------------------------|------------------------------------|

 

J'entends plutôt ça. Qu'en pensez-vous ?

0
0

En Live

Poppy a voté pour le message de Poppyto il y a 1 semaine
Modérateurs et johanson ont commenté le topic [Quelle pédale Detune up/down pour basse ?] de pk.grs il y a 1 semaine
Groumph!, grobass et Poppyto ont commenté le topic [La mort de Slappyto?] de kurt il y a 1 semaine
Groumph!, Poppyto, Emerald, grobass et MasterFailure ont commenté le topic [Le Topic du Freepost 7] de Vikie il y a 1 semaine
Groumph! a voté pour le message de MasterFailure il y a 1 semaine
Bilbaroud a voté pour le message de Poppyto il y a 3 semaines
BeamboomerOLD vient tout juste de rejoindre la communauté Slappyto. Bienvenue ! il y a 1 mois
Poppyto a voté pour le message de grobass il y a 1 mois
MasterFailure a voté pour le message de Poppyto il y a 1 mois
Grobass a commenté le topic [une chope s'il vous plait !] de Adrien21 il y a 1 mois