ConnexionConnexionInscription
B E A D G
110 connectés Aller à Sweepyto Guitare

Bob Marley - Burnin' and Lootin' [ Artiste ]

Publié par le
18/04/2011
12055 vues
Débutant 3
http://www.youtube.com/watch?v=rk1-66aMXKs
    
        

************************************
* Bob Marley : Burnin' and Lootin' *
************************************

mesure = 2/4, tempo = 67, subdivision (-) = double-croche
suggestion de réglages :
    micro : 100% manche
    EQ = 100% bass / 0% mid / 0% treble

Intro :
G|--------|--------|-------H|--------|--------|--------|--------|--------|
D|------5-|--------|------79|--------|------5-|--------|--------|--------|
A|7-------|--------|7-------|--------|7-------|--------|7-------|--------|
E|--------|7-------|--------|--------|--------|7-------|--------|-------3|

                H                                   H               H
G|--------|----02--|--------|--------|--------|----02--|--------|--02----|
D|--------|000-----|--------|--------|--------|000-----|--------|--------|
A|03-20---|--------|03-20---|--------|03-20---|--------|03-20---|------0-|
E|--------|-------3|------0-|+------3|--------|-------3|--------|--------|

Couplet :
G|--------|--------|--------|--------|--------|--------|--------|--------|
D|--------|000-----|--------|--------|--------|000----0|2-------|--2320--|
A|--------|--------|03-20---|--------|03-20---|--------|--------|------32|
E|--------|-------3|------0-|+---0-3-|--------|--------|--------|--------|

                                                    H
G|--------|--------|--------|--------|--------|----02--|--------|--------|
D|--------|000-----|--------|--------|--------|000-----|2-------|--2320--|
A|03-20---|--------|03-20---|--------|03-20---|--------|--------|------32|
E|--------|-------3|------0-|+---0-3-|--------|--------|--------|--------|

Couplet 2 :
                                                                        H
G|--------|--------|--------|--------|--------|--------|--------|------02|
D|--------|000-----|--------|--------|--------|000----0|2-------|2--32---|
A|03-20---|--------|03-20---|--------|03-20---|--------|--------|--------|
E|--------|-------3|------0-|+---0-3-|--------|--------|--------|--------|

G|---2----|--------|--------|--------|--------|--------|--------|--------|
D|--------|000-----|--------|--------|--------|000----0|2-------|--2320--|
A|----0-+-|--------|03-20---|--------|03-20---|--------|--------|------32|
E|--------|-------3|--------|----0-3-|--------|--------|--------|--------|

Refrain :
                                                                  H    H
G|--------|--------|--------|--------|--------|--------|--------|--0--02-|
D|--------|000-----|--------|--------|--------|000----0|--------|02------|
A|03-20---|--------|03-20---|--------|03-20---|--------|-3-0----|--------|
E|--------|-------3|------0-|+---0-3-|--------|--------|3-------|--------|

                                                    H
G|---2----|--------|--------|--------|--------|----02--|--------|--------|
D|--------|000-----|--------|--------|--------|000-----|--------|--------|
A|----0---|--------|03-20---|--------|03-20---|--------|03-20---|--------|
E|--------|-------3|------0-|+---0-3-|--------|--------|--------|----0-3-|

Couplet 3 :
G|--------|--------|--------|--------|--------|--------|--------|--------|
D|--------|000-----|--------|--------|--------|000----0|2-------|--2320--|
A|03-20---|--------|03-20---|--------|03-20---|--------|--------|------32|
E|--------|-------3|------0-|+---0-3-|--------|--------|--------|--------|

                H                                   H                   H
G|--------|----02--|--------|--------|--------|----02--|--------|------02|
D|--------|000-----|--------|--------|--------|000----0|2-------|22-22---|
A|03-20---|--------|03-20---|--------|03-20---|--------|--------|--------|
E|--------|-------3|------0-|+---0-3-|--------|--------|--------|--------|

Refrain 2 :
                                                               H        
G|---2----|--------|--------|--------|--------|--------|------02|--------|
D|--------|000-----|--------|--------|--------|000----0|--------|--------|
A|----0---|--------|03-20-+-|--------|03-20---|--------|0-------|----00--|
E|--------|-------3|--------|----0-3-|--------|--------|--------|-------3|

                                                     
G|--------|--------|--------|--------|--------|--------|--------|--------|
D|--------|000-----|--------|--------|--------|000-+---|--------|--------|
A|03-20---|--------|03-20---|--------|03-20---|--------|03-20-+-|--------|
E|--------|-------3|------0-|+---0-3-|--------|-------3|--------|----0-3-|

Couplet 4 :
G|--------|--------|--------|--------|--------|--------|--------|--------|
D|--------|000-----|--------|--------|--------|000----0|2-------|--2320--|
A|03-20---|--------|03-20---|--------|03-20---|--------|--------|------32|
E|--------|-------3|------0-|+---0-3-|--------|--------|--------|--------|

                H                                   H                   H
G|--------|----02--|--------|--------|--------|----02--|--------|------02|
D|--------|000-----|--------|--------|--------|000-----|---02---|-02-----|
A|03-20---|--------|03-20---|--------|03-20---|--------|03------|--------|
E|--------|-------3|------0-|+---0-3-|--------|-------3|--------|--------|

Refrain 3 :
                                                                    H   
G|--------|--------|--------|--------|--------|--------|--------|--02----|
D|--------|000-+---|--------|--------|--------|000-----|--------|--------|
A|----0---|--------|03-20-+-|--------|03-20---|--------|0-------|0-------|
E|--------|-------3|--------|----0-+-|--------|-------3|-------3|-------3|

                                                  H  
G|--------|--------|--------|--------|--------|--02----|--------|--------|
D|--------|000-----|--------|--------|--------|00------|--------|--------|
A|03-20---|--------|03-20---|--------|03-20---|--------|03-20---|------0-|
E|--------|-------3|------0-|+---0-3-|--------|-------3|--------|----3---|

Refrain 4 :
                H                     >                                                 H
G|--------|----02--|--------|--------|--------|--------|--------|--------|--------|----02--|--------|--------|
D|--------|0-------|--------|--------|--------|000-----|--------|--------|--------|000-----|2-------|--------|
A|-------0|--------|--------|--------|03-20---|--------|03-20---|--------|03-20---|--------|--------|--------|
E|------3-|--------|--------|----0-3-|--------|-------3|------0-|+---0-3-|--------|--------|--------|--------|

=========================================================================================================================
Légende : + = étouffer la corde (stopper le son)
          H = Hammer On (de la note qui se trouve juste sous le H)
          > = en diminuant le volume
=========================================================================================================================

Visitez http://www.ilovetabs.com pour d'autres tablatures "+R" pour guitare basse.

    
    

0 Commentaires : réagissez !

1 2 3 4 5
2 notes
Notes pour Burnin' And Lootin' Basse Tab - (Bob Marley) | Slappyto : 5/5 sur 2 notes
Aucun commentaire !

En Live

Iscou vient tout juste de rejoindre la communauté Slappyto. Bienvenue ! il y a 2 jours
Avamak vient tout juste de rejoindre la communauté Slappyto. Bienvenue ! il y a 4 jours
Fissur79 vient tout juste de rejoindre la communauté Slappyto. Bienvenue ! il y a 4 jours
Franchement, Wario, grobass, bassman59 et Angel ont commenté le topic [Micros.] de Franchement il y a 5 jours
Philbass02 vient tout juste de rejoindre la communauté Slappyto. Bienvenue ! il y a 1 semaine
Fredbasse50 vient tout juste de rejoindre la communauté Slappyto. Bienvenue ! il y a 1 semaine