ConnexionConnexionInscription
B E A D G
158 connectés Aller à Sweepyto Guitare

Téléphone - un autre monde [ Artiste ]

Publié par le
05/05/2011
37055 vues
Débutant 1
http://www.youtube.com/watch?v=-mdyFdgUNfI
    
        

Telephone - Un Autre Monde Bass Tab 
Band: Thelephone
Song: Un Autre Monde

G|------------------|------------------|------------------|----------------
D|-0-0-0-0-0-0-0-0--|------------------|------------------|-------------0--
A|------------------|-2-2-2-2-2-2-2-2--|------------------|---------0-2---2
E|------------------|------------------|-2-2-2-2-2-2-2-2--|-2-2-2-2--------  

                                                       (intro)play x2 times


G|------------------|------------------|------------------|-----------------        D|-0-0-0-0-0-0-0-0--|------------------|------------------|-----------------
A|------------------|-2-2-2-2-2-2-2-2--|------------------|-----------------
E|------------------|------------------|-2-2-2-2-2-2-2-2--|-2-2-2-2-2-2-2-2-

                                                   (main riff)     x3 times

G|------------------|------------------|------------------|-----------------        
D|-0-0-0-0-0-0-0-0--|------------------|------------------|-----------------
A|------------------|-2-2-2-2-2-2-2-2--|-0-0-0-0-0-0-0-0--|-0-0-0-0-0-0-0-0-
E|------------------|------------------|------------------|-----------------

                                                        (Bridge)   x1



G|------------------|------------------|------------------|-----------------
D|--5----0--------0-|------------------|-5----0---------0-|-----------------
A|-----------3------|------------------|-------------3----|-----------------
E|------------------|------------------|------------------|-----------------

G|--5----0--------0-|------------------|--------------0-0-|-2-2-------------
D|------------------|------------------|-5----0----0------|------2--2-------
A|-----------3-3----|------------------|------------------|-------------4-4-
E|------------------|------------------|------------------|-----------------
                                                          (chorus) x1




This a quarter of the song, so you have to play this x4 times and finish with:

 Bridge x1
 Intro  x2

    
    

1 Commentaire

1 2 3 4 5
0 notes
#1
03/10/2016 16:36:39
Ca évite de devoir aller sur youtube  
https://www.youtube.com/watch?v=xqnZPHo6qx4
0
0

En Live

Escaliyo et grobass ont commenté le topic [HELP CONFIG AMPLI !] de JR BASS il y a 1 heure
Escaliyo a voté pour le message de grobass il y a 1 heure
Escaliyo a commenté le topic [Basse pour débuter ] de Patmustang il y a 9 heures
Ray a voté pour le message de grobass il y a 20 heures
Jerem65 et grobass ont commenté le topic [Et vous, vous écoutez quoi maintenant ?] de nono il y a 20 heures