ConnexionConnexionInscription
B E A D G
143 connectés Aller à Sweepyto Guitare

Sam Brown - Stop! [ Artiste ]

Publié par le
05/05/2011
15157 vues
Débutant 4
http://www.youtube.com/watch?v=4ZJyOcAb1KQ
    
        

*********************
* Sam Brown : Stop! *
*********************

mesure = 6/8, tempo = 62, subdivision (-) = croche
suggestion de réglages :
    micro : 50% manche / 50% chevalet
    EQ = 50% bass / 50% mid / 50% treble

Remarques : 
|2-----|***0-0| = |2-----------|------0---0-|
|------|222-2-|   |------------|22-22---2---|

Intro :
G|------|------|------|------|------|------|------|------|
D|2-----|---0--|2-----|---0--|------|------|------|------|
A|------|2-----|------|2-----|2-----|---0--|2+----|------|
E|------|------|------|------|------|2-----|------|------|

Couplet :
G|------|------|------|------|------|------|------|------|------|------|------|------|------|------|------|------|
D|2-----|---0--|2-----|---0--|------|------|------|------|2-----|---0--|2-----|4--4--|------|------|------|------|
A|------|2-----|------|2-----|2-----|---0--|2-----|---0--|------|2-----|------|----4-|2-----|---0--|2+----|------|
E|------|------|------|------|------|2-----|------|2-----|------|------|------|-----2|------|2-----|------|------|

Couplet 2 :
G|------|------|------|------|------|------|------|------|------|------|------|------|------|------|------|------|
D|2-----|---0--|2-----|---0--|------|------|------|------|2-----|---0--|2----3|4--4--|------|------|------|0--4--|
A|------|2-----|------|2-----|2-----|---0--|2-----|---0--|------|2-----|------|----4-|2-----|---0--|2--4--|------|
E|------|------|------|------|------|2-----|------|2-----|------|------|------|-----2|------|2-----|------|------|

Refrain :
                                            /2\/2\
G|------|------|------|------|------|------|------|------|------|0----1|2-----|------|------|------|------|
D|5-----|4----0|------|---2--|5----5|4-----|---0-4|------|2-----|------|------|------|------|------|------|
A|----5-|------|2-----|------|----5-|-----0|2-4---|------|------|------|------|2-----|---0--|2+----|------|
E|-----3|------|----21|0----0|------|------|------|0-----|-----0|------|------|------|2-----|------|------|

Couplet 3 :
G|------|------|------|------|------|------|------|------|------|------|------|------|------|------|------|------|
D|2-----|***0-0|2-----|---0--|------|------|------|------|2-----|***0-0|2----3|4--4--|------|------|------|0--4--|
A|------|222-2-|------|2-----|2-----|***0-0|2-----|---0--|------|222-2-|------|----4-|2-----|***0-0|2--4--|------|
E|------|------|------|------|------|222-2-|------|2-----|------|------|------|-----2|------|222-2-|------|------|

Refrain 2 :
                                            /2\/2\
G|------|------|------|------|------|------|------|------|------|0---01|2-----|------|
D|5----5|4-----|------|---2--|5--5-5|4-----|---0-4|------|2-----|------|-----2|---2--|
A|----5-|------|2-----|------|----5-|-----0|2-4---|------|------|------|------|------|
E|------|-----0|----21|0----0|------|------|------|0-----|----0-|------|------|0----0|

G|------|------|------|------|------|------|------|------|------|------|------|------|
D|0-----|----5-|------|---2--|--4-4-|--5---|------|------|------|------|------|------|
A|------|---5-3|5--555|------|-----4|------|0--0--|-00000|2-----|---0--|2+----|------|
E|-----0|3-----|------|0----0|2-----|3---34|------|------|------|2-----|------|------|

Couplet 3 :
                                                                                             /2\
G|------|------|------|------|------|------|------|------|------|------|------|------|------|------|------|------|
D|2-----|***0-0|2-----|***0-0|------|------|------|0--4--|2-----|***0-0|2----3|4--4--|------|------|------|0--4--|
A|------|222-2-|------|222-2-|2-----|***0-0|2--4--|------|------|222-2-|------|----4-|2-----|---0--|2--4--|------|
E|------|------|------|------|------|222-2-|------|------|------|------|------|-----2|------|2-2--2|------|------|

Solo :
                                            /2\/2\
G|------|------|------|------|------|------|------|------|------|------|
D|5----5|4-----|------|---2--|5----5|4-----|---0-4|------|------|------|
A|--5-5-|------|2-----|------|----5-|-----0|2-4---|------|------|------|
E|---3--|-----0|----21|0----0|------|------|------|0-----|------|------|

Finale :                                                                         /2\
G|------|------|------|------|------|------|------|------|------|------|------|------|------|------|------|------|
D|----5-|------|------|------|------|------|------|----2-|------|-----H|------|----7-|------|-----H|------|------|
A|---5-5|0--7--|---77-|0--707|---5--|0--457|---7-7|0--4-4|-----5|0---07|---77-|0--7-7|----5-|0---57|---7-7|0--707|
E|3-----|------|0----0|------|3-----|------|0---0-|------|3-----|------|0----0|------|3-33-3|------|0---0-|------|

                                                          >
G|------|------|------|------|------|------|------|------|------|------|------|------|------|------|------|------|
D|------|----7-|------|------|------|------|------|----7-|------|----7-|------|----2-|------|------|------|------|
A|-----5|0--7-7|---7-7|0-----|---5--|0--457|---7-7|0--7-7|---5--|0--7-7|---77-|0--4-4|-----5|0--7--|---7--|0-----|
E|3-----|------|0---0-|------|3-----|------|0---0-|------|3-----|------|0----0|------|3-----|------|0-----|------|

=========================================================================================================================
Légende : + = étouffer la corde (stopper le son)
          /2\ = duolet
          H = Hammer On (de la note qui se trouve juste sous le H)
          > = en diminuant le volume
          Il y a si peu de petites variations que cela ne valait pas la peine de remplir des feuilles de tablatures
          juste pour ces dernières. Ce morceau n'est donc pas scrupuleusement retranscrit, contrairement à mon habitude.
=========================================================================================================================

Visitez http://www.ilovetabs.com pour d'autres tablatures "+R" pour guitare basse.

    
    

0 Commentaires : réagissez !

1 2 3 4 5
0 notes
Aucun commentaire !

En Live

Cell a commenté le topic ["recherche" Digitech bass synth wah] de Cell il y a 2 heures
Cell et yvesson ont commenté le topic [Le Topic du Freepost 7] de Vikie il y a 2 heures
Cell a commenté le topic ["recherche" Digitech bass synth wah] de Cell il y a 2 heures
Yvesson a commenté le topic [Amateurs de photographie, bon-jour/soir !] de cha0s-the0ry il y a 15 heures
Yvesson, sam et YannGGP ont commenté le topic [La mort de Slappyto?] de kurt il y a 15 heures
Glimmerkajal vient tout juste de rejoindre la communauté Slappyto. Bienvenue ! il y a 3 jours
Wario a commenté le topic [videothèque des sons] de mr gone il y a 1 semaine
Lebollos59 vient tout juste de rejoindre la communauté Slappyto. Bienvenue ! il y a 1 semaine
GregRock vient tout juste de rejoindre la communauté Slappyto. Bienvenue ! il y a 1 semaine
Chris927 vient tout juste de rejoindre la communauté Slappyto. Bienvenue ! il y a 2 semaines