ConnexionConnexionInscription
B E A D G
135 connectés Aller à Sweepyto Guitare

Green Day - Boulevard of Broken Dreams [ Artiste ]

Publié par le
10/06/2011
18881 vues
Débutant 1
http://www.youtube.com/watch?v=gWNRUVMboq4
    
        

couplets
G -------------------------------
D -------------------------------
A ------------6-66---------------
E --1-11-4444------6666----------

Refrain/Solo guitare

G --------------------------------
D --------------------------------
A -4444-------6666----------------
E -------4444------1111-----------
x4 
A -33333333----------------------- X4

Out break

G --------------------------------
D --------------------------------
A ------4-44--6-66--5-55----------
E -1-11------------------4-44-0-00
 X4
    
    

2 Commentaires

1 2 3 4 5
10 notes
Notes pour Boulevard Of Broken Dreams Basse Tab - (Green Day) | Slappyto : 4/5 sur 10 notes
#2
19/10/2013 16:33:03

http://www.youtube.com/watch?v=aGzgoSg5OZg  

Génial un grand merci  
Je remet la musique car dans l'article elle est indisponible  

0
0
#1
21/09/2011 22:12:00
Super, merci !
0
0

En Live

Glimmerkajal vient tout juste de rejoindre la communauté Slappyto. Bienvenue ! il y a 2 jours
Wario a commenté le topic [videothèque des sons] de mr gone il y a 1 semaine
Lebollos59 vient tout juste de rejoindre la communauté Slappyto. Bienvenue ! il y a 1 semaine
GregRock vient tout juste de rejoindre la communauté Slappyto. Bienvenue ! il y a 1 semaine
Chris927 vient tout juste de rejoindre la communauté Slappyto. Bienvenue ! il y a 2 semaines
Greeshma vient tout juste de rejoindre la communauté Slappyto. Bienvenue ! il y a 2 semaines
Ludo ZEFISH vient tout juste de rejoindre la communauté Slappyto. Bienvenue ! il y a 2 semaines
Nicobass1793 vient tout juste de rejoindre la communauté Slappyto. Bienvenue ! il y a 2 semaines
Indonesiae vient tout juste de rejoindre la communauté Slappyto. Bienvenue ! il y a 2 semaines