ConnexionConnexionInscription
B E A D G
144 connectés Aller à Sweepyto Guitare

Marcus Miller - Jean Pierre [ Artiste ]

Publié par le
07/06/2011
19513 vues
Avancé 1
http://www.youtube.com/watch?v=zzy8OnZUlP0
    
        

Jean Pierre                                                       
Marcus Miller
Free

Un morceau bien trop compliqué pour une transcription en tablature
pour la suite (guitar pro et pdf http://junk1000.free.free.fr/menutabs.html)



Intro 
G||-----------------------|-----------------------|-----------------------|------------------------------|
D||-----------------------|-----------------------|-----------------------|------------------------------|
A||-----------------------|-----------------------|-----------------------|-----------------2--3--2--0-2-|
E||-----5-------5---------|-----5-------5---------|-----5-------5---------|----2---5---2-5---------------|


-------------------------|-----------------------------|-------------------------|--------------------------------|
-----------------------7-|--------------------4h-5--4h-|--5--4-------------------|--------------------------------|
-------------------------|-----------------------------|-------------------------|----------------------5---------|
-----5-------5-----------|-----5-------5---------------|-------5-------5---------|---2---5---2-5---7--8---7---5-0-|



-----------------------------|----------------------------------|--------------------2-----|
-------------------5-7p-5-7p-|--5-7p-5-7p-5-7p-5-7------5-4---4-|--------------------------|
-----------------------------|------------------------------7---|--------------------------|
-----5-------5---------------|----------------------------------|--5-------5-------------2-|


---------------------------------|------------------7g9--12p-9-|--12p-9-12p-9-12p-9-12p-9--9p-7------|
---------------------------------|-----------------------------|--------------------------------7-10-|
--------------------5------------|-----------------------------|-------------------------------------|
----5---2-5----7--8---7---5---0--|--5-------5------------------|-------------------------------------|



-------------------------|--------------------------------|
--7---------------7------|----------------------------7---|
-------------------------|------------------------7-9-----|
----------5------------2-|----5---2-5-----(5)-------------|



    
    

2 Commentaires

1 2 3 4 5
2 notes
Notes pour Jean Pierre Basse Tab - (Marcus Miller) | Slappyto : 4/5 sur 2 notes
#2
08/06/2011 21:53:15
Avec le pdf tu as la partition aussi! C'est PARFAIT!
0
0
#1
07/06/2011 20:11:22

Sinon, il y a ça : 

Transcription de Jean-Pierre par Marcus 

0
+1

En Live

Yvesson a commenté le topic [Amateurs de photographie, bon-jour/soir !] de cha0s-the0ry il y a 37 minutes
Yvesson a commenté le topic [Le Topic du Freepost 7] de Vikie il y a 45 minutes
Yvesson, sam et YannGGP ont commenté le topic [La mort de Slappyto?] de kurt il y a 45 minutes
Glimmerkajal vient tout juste de rejoindre la communauté Slappyto. Bienvenue ! il y a 2 jours
Wario a commenté le topic [videothèque des sons] de mr gone il y a 1 semaine
Lebollos59 vient tout juste de rejoindre la communauté Slappyto. Bienvenue ! il y a 1 semaine
GregRock vient tout juste de rejoindre la communauté Slappyto. Bienvenue ! il y a 1 semaine
Chris927 vient tout juste de rejoindre la communauté Slappyto. Bienvenue ! il y a 2 semaines
Greeshma vient tout juste de rejoindre la communauté Slappyto. Bienvenue ! il y a 2 semaines