ConnexionConnexionInscription
B E A D G
146 connectés Aller à Sweepyto Guitare

Nada Surf - Do It Again [ Artiste ]

Publié par le
16/07/2011
2964 vues
Moyen 1
http://www.youtube.com/watch?v=pbKDdlvmg8E
    
        

Riff 1 : 

G|--------------------------------------------|
D|--------------------------------------------|
A|---2--------2--2---------5--------5---------|
E|-2---2-2--2-------2----5---5-5--5----5------|x6

Riff 2 : 

G|-----------------------------------------------------------------------|
D|-----------------------------------------------------------------------|
A|-------------------------------------5-5-7-5--5-5-5--0-0-2-0--0-0-0----|
E|-5/7-7-9-7--7-7-7--5/7-7-9-7--7-7-7------------------------------------|x2

Riff 1 V2 : 

G|--------------------------------------------|
D|--------------------------------------------|
A|---2--------2--2---------5--------5---------|
E|-2---2-2--2-------2----5---5-5--5----5------|x4

G|-----------------------------------------|
D|-----------------------------------------|
A|---2--------2--2---------5--------5------|
E|-2---2-2--2-------2----5---5-5--5--------|


Riff 3 : 

G|--------------------------------------------------------------------|
D|--------------------------------------------------------------------|
A|-5-5-5-5-5-5-5-5-5-5-5-5-5-5-5-5-2-2-2-2-2-2-2-2--------------------|
E|-------------------------------------------------3-3-3-3-3-3-3-3----|

G|---------------------------------------------------------------------|
D|---------------------------------------------------------------------|
A|-5-5-5-5-5-5-5-5-/9-9-9-9-9-9-9-9-2-2-2-2-2-2-2-2--------------------|
E|--------------------------------------------------3-3-3-3-3-3-3-3----|


Riff 2 : 

G|-----------------------------------------------------------------------|
D|-----------------------------------------------------------------------|
A|-------------------------------------5-5-7-5--5-5-5--0-0-2-0--0-0-0----|
E|-5/7-7-9-7--7-7-7--5/7-7-9-7--7-7-7------------------------------------|x4

Riff 1 : 

G|--------------------------------------------|
D|--------------------------------------------|
A|---2--------2--2---------5--------5---------|
E|-2---2-2--2-------2----5---5-5--5----5------|x1

Riff 4 : 

G|--------------------------------------------------------------------|
D|--------------------------------------------------------------------|
A|-5-5-5-5-5-5-5-5-5-5-5-5-5-5-5-5-2-2-2-2-2-2-2-2--------------------|
E|-------------------------------------------------3-3-3-3-3-3-3-3----|

G|---------------------------------------------------------------------|
D|---------------------------------------------------------------------|
A|-5-5-5-5-5-5-5-5-/9-9-9-9-9-9-9-9-2-2-2-2-2-2-2-2--------------------|
E|--------------------------------------------------3-3-3-3-3-3-3-3----|

G|--------------------------------------------------------------------|
D|--------------------------------------------------------------------|
A|-5-5-5-5-5-5-5-5-5-5-5-5-5-5-5-5-5-5-5-5-5-5-5-5-5-5-5-4-4-4-4-4----|
E|--------------------------------------------------------------------|

G|---------------------------------------------------------------------|
D|---------------------------------------------------------------------|
A|-2-2-2-2-2-2-2-2-2-2-2-2-2-2-2-2-------------------------------------|
E|---------------------------------3-3-3-3-3-3-3-3-3-3-3-3-3-3-3-3-----|

G|--------------------------------------------------------------------|
D|--------------------------------------------------------------------|
A|-5-5-5-5-5-5-5-5-5-5-5-5-5-5-5-5-5-5-5-5-5-5-5-5-5-5-5-4-4-4-4-4----|
E|--------------------------------------------------------------------|

G|--------------------------------------------------------------------------|
D|--------------------------------------------------------------------------|
A|-2-2-2-2-2-2-2-2-2-2-2-2-2-2-2-2-----------------/10-10-10-10-10-10-10-10-|
E|---------------------------------3-3-3-3-3-3-3-3--------------------------|

G|--------------------------------------------------------------------|
D|--------------------------------------------------------------------|
A|-5-5-5-5-5-5-5-5-5-5-5-5-5-5-5-5-5-5-5-5-5-5-5-5-5-5-5-4-4-4-4-4----|
E|--------------------------------------------------------------------|

G|--------------------------------------------------------------------------|
D|--------------------------------------------------------------------------|
A|-2-2-2-2-2-2-2-2-2-2-2-2-2-2-2-2-----------------/10-10-10-10-10-10-10-10-|
E|---------------------------------3-3-3-3-3-3-3-3--------------------------|

Fin : 

G|--------------------------------------------------------------------|
D|--------------------------------------------------------------------|
A|-5-5-5-5-5-5-5-5-5-5-5-5-5-5-5-5-5-5-5-5-5-5-5-5-5-5-5-4-4-4-4-4----|
E|--------------------------------------------------------------------|

G|---------------------------------------|
D|---------------------------------------|
A|-2-2-2-2-2-2-2-2-2-2-2-2-2-2-2-2-------|
E|---------------------------------3-----|
    
    

0 Commentaires : réagissez !

1 2 3 4 5
1 note
Notes pour Do It Again Basse Tab - (Nada Surf) | Slappyto : 5/5 sur 1 note
Aucun commentaire !

En Live

Slaeh vient tout juste de rejoindre la communauté Slappyto. Bienvenue ! il y a 3 heures
JamSpace vient tout juste de rejoindre la communauté Slappyto. Bienvenue ! il y a 1 jour
Globalshop vient tout juste de rejoindre la communauté Slappyto. Bienvenue ! il y a 1 jour
Hatimov vient tout juste de rejoindre la communauté Slappyto. Bienvenue ! il y a 1 jour
Jammershopers vient tout juste de rejoindre la communauté Slappyto. Bienvenue ! il y a 2 jours
Sydi vient tout juste de rejoindre la communauté Slappyto. Bienvenue ! il y a 2 jours
PipouDevos vient tout juste de rejoindre la communauté Slappyto. Bienvenue ! il y a 4 jours
NicholasC vient tout juste de rejoindre la communauté Slappyto. Bienvenue ! il y a 5 jours