ConnexionConnexionInscription
B E A D G
146 connectés Aller à Sweepyto Guitare

Noir Désir - Marlene [ Artiste ]

Publié par le
14/07/2011
14139 vues
Débutant 2
http://www.deezer.com/listen-1090085
    
        

G|--------------------------------------------|
D|---7---7---2---2---3---5---7---7------------|
A|--------------------------------------------|
E|-5---5---0---0---1---3---5---5--------------|x5

G|---5---5------------------------------------|
D|-----------5---5---7---7---2---2------------|
A|-3---3--------------------------------------|
E|---------3---3---5---5---0---0--------------|

G|--------------------------------------------|
D|---7---7---2---2---3---5---7---7------------|
A|--------------------------------------------|
E|-5---5---0---0---1---3---5---5--------------|x3


G|---5---5------------------------------------|
D|-----------5---5---7---7---2---2------------|
A|-3---3--------------------------------------|
E|---------3---3---5---5---0---0--------------|

G|--------------------------------------------|
D|---7---7---2---2---3---5---7---7------------|
A|--------------------------------------------|
E|-5---5---0---0---1---3---5---5--------------|x3

G|--------------------------------------------|
D|-----------2---2---3---5---7---7------------|
A|--------------------------------------------|
E|-5-------0---0---1---3---5---5--------------|

G|--------------------------------------------|
D|---7---7---2---2---3---5---7---7------------|
A|--------------------------------------------|
E|-5---5---0---0---1---3---5---5--------------|

G|---5---5------------------------------------|
D|-----------5---5---7---7---2---2------------|
A|-3---3--------------------------------------|
E|---------3---3---5---5---0---0--------------|

G|--------------------------------------------|
D|---7---7---2---2---3---5---7---7------------|
A|--------------------------------------------|
E|-5---5---0---0---1---3---5---5--------------|

G|--------------------------------------------|
D|--------------------------------------------|
A|--------------------------------------------|
E|-5---5---0-0---1---3---5-5------------------|

G|--------------------------------------------|
D|--------------------------------------------|
A|--------------------------------------------|
E|-5---5---0-0---1---3---5-3-1-0--------------|

G|------------------------------------------------|
D|------------------------------------------------|
A|------------------------------------------------|
E|-5--5555--5---0--0000--0---1---3---5-5555--5----|x4

G|--------------------------------------------|
D|--------------------------------------------|
A|--------------------------------------------|
E|-5---5---5---5---5~~------------------------|
    
    

0 Commentaires : réagissez !

1 2 3 4 5
4 notes
Notes pour Marlene Basse Tab - (Noir Désir) | Slappyto : 5/5 sur 4 notes
Aucun commentaire !

En Live

Slaeh vient tout juste de rejoindre la communauté Slappyto. Bienvenue ! il y a 3 heures
JamSpace vient tout juste de rejoindre la communauté Slappyto. Bienvenue ! il y a 1 jour
Globalshop vient tout juste de rejoindre la communauté Slappyto. Bienvenue ! il y a 1 jour
Hatimov vient tout juste de rejoindre la communauté Slappyto. Bienvenue ! il y a 1 jour
Jammershopers vient tout juste de rejoindre la communauté Slappyto. Bienvenue ! il y a 2 jours
Sydi vient tout juste de rejoindre la communauté Slappyto. Bienvenue ! il y a 2 jours
PipouDevos vient tout juste de rejoindre la communauté Slappyto. Bienvenue ! il y a 3 jours
NicholasC vient tout juste de rejoindre la communauté Slappyto. Bienvenue ! il y a 5 jours