ConnexionConnexionInscription
B E A D G
136 connectés Aller à Sweepyto Guitare

Interpol - Barricade [ Artiste ]

Publié par le
25/11/2010
3387 vues
Moyen 4
http://www.youtube.com/watch?v=FOVkt7GL-zQ&feat...
    
        

The ' indicates play the same as the previous note.

Intro: 
G|-----------------------------| 
D|--12’------------12’’’12’’\--| 
A|------10’’’10’’’-------------| 
D|-----------------------------| x4 

Verse 1/2: 
G|----------------------------------------------------9----------------------------------------| 
D|------99-99----12’-----------12’’’12’------------------9---------99-99--12’----------12’’’12’| 
A|5h7p5------77----10’’’10’’’-----------55/77-5-55/77--77-7-—5h7p5------7---10’’’10’’’---------| 
D|---------------------------------------------------------------------------------------------| 

G|---------------------------------------------------------------| 
D|---------------------------7/9-—7/9----------------------------| 
A|--55/7’-7-7-7-777----5h7p5----------7----10’’’10’’-9/10’’-910--| 
D|---------------------------------------------------------------| 

Chorus: 
G|---------------------------------------------------------------------------------------------| 
D|---------------------7----------5----------7---------------------7----------5----------------| 
A|-------------------------557-7-7---775--775-5------------------------557-7-7--775-5-55/6-6-6-| 
D|3-335--5-55—557--557-----------------------------775-5-55-557-557----------------------------| 

Chorus Outro 1: 
G|------------------------------------------------------------------| 
D|--2-------------4----2-----------------------------------------0--| 
A|---33-3-3/5\2-2—-5--0-3-3/10\77-7-7/10\77--/10\77-7-7/10----02----| 
D|------------------------------------------------------------------| 

G|----------------------------------------------12----11---9---| 
D|--2--------------4----2--------------------------------------| 
A|---33-3—3/5\2-2—--5--0-3-3/10\77-7-7/10\77------10\9—-9\7-7--| 
D|-------------------------------------------------------------| 

Bass Solo: 
G|-----------------------------------------------------------------| 
D|----------14’---14’----16’---16’----17’-----17-------------------| 
A|--121412-----12’----------14’----------15’----15’—-1412’--12/14--| 
D|-----------------------------------------------------------------| 

G|------------------------------------------------| 
D|----------14---14----16’---16’----17’-----17’---| 
A|--121412----12’---------14’----------15’--------| 
D|------------------------------------------------| 

Chorus Outro 2: 
G|------------------------------------------------------------------| 
D|--2-------------4----2-----------------------------------------0--| 
A|---33-3-3/5\2-2—-5--0-3-3/10\77-7-7/10\77--/10\77-7-7/10----02----| 
D|------------------------------------------------------------------| 

G|----------------------------------------------------------12----11--| 
D|--2--------------4----2---------------------------------------------| 
A|---33-3-3/5\2-2—--5--0-3-3/10\77-7-7/10\77--/10\77-7-7------10\9----| 
D|--------------------------------------------------------------------| 

G|------------------------------------------------------------------| 
D|--2-------------4----2-----------------------------------------0--| 
A|---33-3-3/5\2-2—-5--0-3-3/10\77-7-7/10\77--/10\77-7-7/10----02----| 
D|------------------------------------------------------------------| 

G|---------------------------------------------------------1617--| 
D|--2-------------4----2-----------------------------141517------| 
A|---333-3/5\2-2—--5--0-3-3/10\77-7-7/10\77--/10-1415------------| 
D|---------------------------------------------------------------| 

Outro: 
G|19’’—19’’—19’’-19’’----19’’—19’’—19’’-19’’----19’’—19’’—19’’-19’’----17’’-17’’-16’’-14’’-----| 
D|-----------------------------------------------------------------------------------------17--| 
A|---------------------------------------------------------------------------------------------| 
D|---------------------------------------------------------------------------------------------| 

| / slide up 
| \ slide down 
| h hammer-on 
| p pull-off 

    
    

0 Commentaires : réagissez !

1 2 3 4 5
1 note
Notes pour Barricade Basse Tab - (Interpol) | Slappyto : 5/5 sur 1 note
Aucun commentaire !

En Live

Tomioux a commenté le topic [vds basse modulus quantum 4] de tomioux il y a 5 heures
Ray a commenté le topic [G&L M2500 parfait état ] de Ray il y a 2 jours
Stephfff vient tout juste de rejoindre la communauté Slappyto. Bienvenue ! il y a 2 jours
Dji-san vient tout juste de rejoindre la communauté Slappyto. Bienvenue ! il y a 3 jours
Malkofr vient tout juste de rejoindre la communauté Slappyto. Bienvenue ! il y a 3 jours
Grattos95 et Groumph! ont commenté le topic [Pat est décédé] de khan il y a 4 jours
Alexphalippon vient tout juste de rejoindre la communauté Slappyto. Bienvenue ! il y a 5 jours
Wario, nicobasse et Pasc74 ont commenté le topic [GL Kiloton US 890€] de Wario il y a 6 jours
Seeb vient tout juste de rejoindre la communauté Slappyto. Bienvenue ! il y a 6 jours