ConnexionConnexionInscription
B E A D G
161 connectés Aller à Sweepyto Guitare

Metallica - Orion [ Artiste ]

Publié par le
03/10/2011
11317 vues
Avancé 4
http://www.youtube.com/watch?v=LAXsg4g7rGg
    
        

Bass distortion.

G||-------------------|-------------------|--4----------------|
D||-------------------|-------------------|-------------------|
A||--7----------------|-------------------|--5----------------|
E||--0----------------|-------------------|-------------------|

|-------------------|-------------------|
|--4----------------|-------------------|
|--6----------------|--7----------------|
|-------------------|--0----------------|


|-------------------|-------------------|-------------------|
|-------------------|-------------------|--9----------------|
|--7----------------|-------------------|-------------------|
|-------------------|-------------------|-------------------|


|-------------------|-------------------|
|-------------------|-------------------|
|--9----------------|--7----------------|
|-------------------|-------------------|


Main Rhythm

|--------------------------|--------------------------|
|--------------------------|--------------------------|
|--7--------7--------7-----|--7--------7--------7-----|
|-----0--0-----0--0-----0--|-----0--0-----0--0-----0--|

|--------------------------|--------------------------|
|--------------------------|--------------------------|
|--5--------5--------5--5--|--6--------6--------6--6--|
|-----7--7-----7--7--------|-----7--7-----7--7--------|


Bass Fill (use distortion)

|--------------14--------------16--------------|
|--14-14-14-14-----14-14-14-14-----14-14-14-14-|
|----------------------------------------------|
|----------------------------------------------|

|--17------------------------------------|
|------14-14-14-14-14--14-14-15--15-15---|
|----------------------------------------|
|----------------------------------------|

|--------------17--------------16--------------|
|--14-14-14-14-----14-14-14-14-----14-14-14-14-|
|----------------------------------------------|
|----------------------------------------------|

|--14------------------------------------|
|------14-14-14-14-14--14-14-15--15-15---|
|----------------------------------------|
|----------------------------------------|

(Slide out the last note the last time this riff is played)


Rhythm Riff 2

|-------------------------------|------------------------------|
|-------------------------------|------------------------------|
|---------0----------2----------|--3---------------------------|
|--0--0-0----0-0-0-0----0-0-0-0-|-----0-0-0-0-0--0-0-1--1-1-0--|


  E  S S E  S S S S E  S S S S    E  S S S S E  S S E  S S E
|-------------------------------|------------------------------|
|-------------------------------|------------------------------|
|---------3----------2----------|--0---------------------------|
|--0--0-0----0-0-0-0----0-0-0-0-|-----0-0-0-0-0--0-0-1--1-1-0--|

Back to the Main rhythm riff and then


|--------------------------|--------------------------|
|--------------------------|--------------------------|
|--0--0--0--0--0--0--0-----|--------------------0--0--|
|-----------------------0--|--2--2--2--2--2--2--------|

|--------------------------|--------------------------|
|--------------------------|--------------------------|
|--2--2--2--2--2--2--2--0--|--0--0--0--0--0--0--0-----|
|--------------------------|-----------------------0--|


|--------------------------|-----------------------|-------------------|
|--------------------------|-----------------------|-------------------|
|--------------------------|-----------------------|-------------------|
|--2--2--2--2--2--2--0--0--|--0------0--0--0--0----|-------------------|

|------------------------|---------------------------|
|------------------------|---------------------------|
|--2------2--2--2--2-----|--0------0--0----0----0----|
|------------------------|---------------------------|

|---------------------------|-------------------|--------------------|
|---------------------------|-------------------|--------------------|
|---------------------------|-------------------|--------------------|
|--2------2--2----2----2----|--0----------------|--------------------|


Clean Bass solo

|---------11-----9-----|-----9--------9-----|---------11-----9-----|
|------11-----7-----7--|--9-----9-----------|------11-----7-----7--|
|--9-------------------|-----------7-----7--|--9-------------------|
|----------------------|--------------------|----------------------|

|-----9------------|---------11-----9-----|-----9--------------|
|--9-----9---------|------11-----7-----7--|--9-----9-----9-----|
|-----------7------|--9-------------------|-----------7-----7--|
|------------------|----------------------|--------------------|

|---------11-----9-----|-----9-----9-9--9---9------|---------11-----9-----|
|------11-----7-----7--|--9-----9-------------11-9-|------11-----7-----7--|
|--9-------------------|---------------------------|--9-------------------|
|----------------------|---------------------------|----------------------|

|-----9--------9-----|---------11-----9-----|-----9------------|
|--9-----9-----------|------11-----7-----7--|--9-----9---------|
|-----------7-----7--|--9-------------------|-----------7------|
|--------------------|----------------------|------------------|

|---------11-----9-----|-----9--------------|---------11-----9-----|
|------11-----7-----7--|--9-----9-----9-----|------11-----7-----7--|
|--9-------------------|-----------7-----7--|--9-------------------|
|----------------------|--------------------|----------------------|

|--9-9-9-9-9-9-9-6---------|---------11-----9-----|-----9--------9-----|
|------------------9-7-----|------11-----7-----7--|--9-----9-----------|
|----------------------9-7-|--9-------------------|-----------7-----7--|
|--------------------------|----------------------|--------------------|

|---------11-----9-----|-----9-----6-9-6-------|---------11-----9-----|
|------11-----7-----7--|--9-----9--------9-7-6-|------11-----7-----7--|
|--9-------------------|-----------------------|--9-------------------|
|----------------------|-----------------------|----------------------|

|-----9---------------|---------11-----9--9--|-----9--9--9-7-6-------|
|--9-----9-----9----7-|------11-----7--------|--9--------------9-7-6-|
|-----------7-----7---|--9-------------------|-----------7-----------|
|---------------------|----------------------|-----------------------|

|---------11-----9-----|-----9--------9-----|---------11-----9-----|
|------11-----7-----7--|--9-----9-----------|------11-----7-----7--|
|--9-------------------|-----------7-----7--|--9-------------------|
|----------------------|--------------------|----------------------|


|-----9-----------------|---------11-----9-----|-----9---------------|
|--9-----9--9-7---------|------11-----7-----7--|--9-----9------9-7-6-|
|---------------9-7---7-|--9-------------------|-----------7---------|
|-------------------9---|----------------------|---------------------|

|---------11-----9-----|-----------------------|---------11-----9-----|
|------11-----7-----7--|--9--9--9--------------|------11-----7-----7--|
|--9-------------------|-----------7-7-7-7-7-7-|--9-------------------|
|----------------------|-----------------------|----------------------|

|-----9--------9-----|---------11-----9-----|-----9-----9-9-9-9-6---|
|--9-----9-----------|------11-----7-----7--|--9-----9------------9-|
|-----------7-----7--|--9-------------------|-----------------------|
|--------------------|----------------------|-----------------------|

|---------11-----9-----|-----9---------------|---------11-----9-----|
|------11-----7-----7--|--9-----9------9-7-6-|------11-----7-----7--|
|--9-------------------|-----------7---------|--9-------------------|
|----------------------|---------------------|----------------------|

|--9-9-9--9-9-9-9-9-6---------|---------11-----9-----|-----9---------------|
|---------------------9-7-----|------11-----7-----7--|--9-----9--------6-7-|
|-------------------------9-7-|--9-------------------|-----------7---9-----|
|-----------------------------|----------------------|---------------------|

|---------11-----9-----|--11-11-11-11-11-11-11-9----------|
|------11-----7-----7--|-------------------------11-9-7---|
|--9-------------------|--------------------------------7-|
|----------------------|----------------------------------|

It changes a bit here

|----------11------------------|-----9-----------------|
|-------11---------14----------|--9----9-6------7-6----|
|--9--9--------12-----12-11-12-|-----------9-7------7--|
|------------------------------|-----------------------|

|----------11------------------|-----9-----------------|
|-------11---------14----------|--9----9-6------7-6----|
|--9--9--------12-----12-11-12-|-----------9-7------7--|
|------------------------------|-----------------------|

|----------11------------------|-----9-----------------|
|-------11---------14----------|--9----9-6------7-6----|
|--9--9--------12-----12-11-12-|-----------9-7------7--|
|------------------------------|-----------------------|

|----------11------------------|-----9-----------------|
|-------11---------14----------|--9----9-6------7-6----|
|--9--9--------12-----12-11-12-|-----------9-7------7--|
|------------------------------|-----------------------|

|--------------------------9----|-------------------------------|
|----------11----11-----11---11-|--12--12-9---------------------|
|--9--9-12----12-----12---------|-----------11---------11-14-11-|
|-------------------------------|---------------12--12----------|

|--------------------------9----|-------------------------------|
|----------11----11-----11---11-|--12--12-9---------------------|
|--9--9-12----12-----12---------|-----------11---------11-14-11-|
|-------------------------------|---------------12--12----------|

|----------------------------------9-|------------------------------------|
|----------------11-11-11-11----11---|--12-12-12-9----9-------------------|
|--12-12-12-9-12-------------12------|-------------11------------11-14-11-|
|------------------------------------|------------------12-12-12----------|

|----------------------------------9-|------------------------------------|
|----------------11-11-11-11----11---|--12-12-12-9----9-------------------|
|--12-12-12-9-12-------------12------|-------------11------------11-14-11-|
|------------------------------------|------------------12-12-12----------|

Brace yourself to play the next solo here

|------------------|------------------|------------------|------------------|
|------------------|------------------|------------------|------------------|
|----------0----0--|----------4----4--|----------0----0--|----------4----4--|
|--2----2----------|--0----0----------|--2----2----------|--0----0----------|

|------------------|------------------|------------------|------------------|
|------------------|------------------|------------------|------------------|
|----------0----0--|----------4----4--|----------0----0--|----------4----4--|
|--2----2----------|--0----0----------|--2----2----------|--0----0----------|


Distorted Bass Solo

|--9br-----------9------|--------9---9-------4-5p-4---4-|
|-----------------------|----7-7---5---4-5-7--------7---|
|-----------------------|-------------------------------|
|-----------------------|-------------------------------|

|--5p-4---4h-5p-4---4h-5p-4---4--------|----4-5-7-5-4-5-5-4---4-5-4-5-|
|-------7---------7---------7---5------|--------------------7---------|
|--------------------------------------|------------------------------|
|--------------------------------------|------------------------------|

|--4-----4-----------------|--------------------------|
|----5-----5---5-----5-----|--7-4---7-4---4-------4---|
|------7-----7---7-----7---|------5-----5---5---5---5-|
|------------------8-----8-|------------------7-------|

|--------------------------------------|-----------------------------------|
|--------------------------------------|-----------------------------------|
|--12b--12-10-12br--10-12-12-10-9-10-9-|--10-9h-10p-9S-7-9-7-5-7-5-3-5-----|
|--------------------------------------|-------------------------------3-2-|

|---------|
|---------|
|---------|
|--0-0----|

|---------------------|--------------------|----------------|
|---------------------|--------------------|----------------|
|--0-------------3----|--------------------|--3-------------|
|---------0-----------|--------------------|---------0------|


|-------------------|
|-------------------|
|--0----------------|
|-------------------|


Outro

|--------------------------|--------------------------|
|--------------------------|--------------------------|
|--2--2--2--2--2--2--0-----|--2--2--2--2--2--2--5--2--|
|--------------------------|--------------------------|

|--------------------------|--------------------------|
|--------------------------|--------------------------|
|--0--0--0--0--0--0--2--0--|--------------------0-----|
|--------------------------|--2--2--2--2--2--2--------|

|--------------------------|--------------------------|
|--------------------------|--------------------------|
|--2--2--2--2--2--2--0-----|--0--0--0--0--0--0--0-----|
|--------------------------|--------------------------|
    
    

0 Commentaires : réagissez !

1 2 3 4 5
7 notes
Notes pour Orion Basse Tab - (Metallica) | Slappyto : 2/5 sur 7 notes
Aucun commentaire !

En Live

Rod69610 et azertyop ont commenté le topic [Vends Precision Bass Sting "Signature"] de azertyop il y a 4 heures
Philippe84 vient tout juste de rejoindre la communauté Slappyto. Bienvenue ! il y a 6 heures
Wario a voté pour le message de PatG il y a 7 heures
Fendermk a voté pour le message de nal il y a 11 heures
Fendermk a voté pour le message de briciu il y a 11 heures
Fendermk et briciu ont commenté le topic [Squier Mike Dirnt Precision Bass + case + sangle 2...] de Fendermk il y a 11 heures
Ray, Coyote78 et darkkimhari ont voté pour le message de Staz il y a 1 jour
Granulet vient tout juste de rejoindre la communauté Slappyto. Bienvenue ! il y a 2 jours
Badkaeloo vient tout juste de rejoindre la communauté Slappyto. Bienvenue ! il y a 2 jours