ConnexionConnexionInscription
B E A D G
140 connectés Aller à Sweepyto Guitare

Southern Culture on the Skids - Smiley Yeah Yeah Yeah [ Artiste ]

Publié par le
15/11/2011
2077 vues
Moyen 1
http://www.youtube.com/watch?v=ZIjsfAVL43w
    
        

*********************************************************
* Southern Culture on the Skids : Smiley Yeah Yeah Yeah *
*********************************************************

mesure = 4/4, tempo = 190, subdivision (-) = croche
suggestion de réglages :
    micro : 100% manche
    EQ = 100% bass / 50% mid / 50% treble

Intro :
 |: 4x   :|                                   |: 4x            :|
G|--------|--------|--------|--------|--------|--------|--------|
D|--------|--------|--------|--------|--------|----2-+-|0-+2+---|
A|--------|--------|--------|--------|------H-|--------|------H-|
E|--------|0-00+---|--------|0+------|-----34-|0+------|-----34-|

Couplet :
G|--------|--------|--------|--------|--------|--------|--------|--------|
D|--------|--------|--------|--------|--------|--------|--------|--------|
A|--------|------H-|--------|------H-|--------|------H-|--------|--------|
E|0+0+----|-----34-|0+------|-----34-|0+------|-----34-|0+------|--------|

Refrain :
G|--------|--------|--------|--------|--------|--------|--------|--------|--------|--------|--------|--------|
D|--------|------2-|--------|------2-|--------|------2-|--------|--------|--------|--------|--------|--------|
A|------2-|0-0-4---|------2-|0-0-4---|------2-|0-0-4---|----4-2-|0-4-5-6-|7-7-+-7-|7-+7+55-|7-7-+7+-|7+-7--H-|
E|0---4---|--------|0---4---|--------|0-0-4---|--------|0-0-----|--------|--------|--------|--------|-----34-|

Couplet

Refrain 2 :
G|--------|--------|--------|--------|--------|--------|--------|--------|
D|--------|--------|--------|----2---|--------|----2---|--------|--------|
A|------2-|0-4-5-6-|7-----2-|0-4---4-|----2---|0-4---4-|----2---|0-4-5-7-|
E|0-0-4---|--------|--0-4---|--------|0-4---4-|--------|0-4---4-|--------|

Pont :
G|--------|--------|--------|--------|--------|--------|--------|--------|
D|--------|4-------|--------|--------|--------|4-------|----1-4-|------2-|
A|----4---|---4-43-|2-2---0-|2-2-----|----1-4-|---4-43-|2-2-----|0-0-4---|
E|2-------|--------|----2---|----0-1-|2-+2----|--------|--------|--------|

Couplet

Refrain 3 :
 |: 2x            :|                                   |: 2x            :|
G|--------|--------|--------|--------|--------|--------|--------|--------|
D|2+------|2+----0-|2-2-----|--------|--------|--------|--------|--------|
A|----2+--|---2+0--|----2-1-|0-0-----|----2-1-|0-0-----|----2-1-|0-0-----|
E|--------|--------|--------|----3-3-|0-0-----|----3-3-|0-4-----|----3-3-|

G|--------|--------|--------|----6-9-|--------|--------|--------|--------|
D|--------|--------|----6-9-|7-7-----|----6-9-|7-7-5-4-|--------|------2-|
A|------2-|0-0-4-5-|7-7-----|--------|7-7-----|--------|7-7-----|0-0-4---|
E|0-0-4---|--------|--------|--------|--------|--------|----0-4-|--------|

Pont 2 :
G|--------|2+------|--------|--------|--------|----2+--|--------|--------|
D|----2+--|--------|--------|----1-4-|0+------|0+------|2+------|2-------|
A|0+------|----001-|2-2-----|2-------|----0+--|--------|----2+--|--------|
E|--------|--------|----2---|--------|--------|--------|--------|--0-2-4-|

G|--------|--------|------4-|4-+-----|--------|------2-|--------|--------|--------|--------|
D|--------|------2-|----4---|---4+---|0+------|0+--4---|2-------|--------|2-------|2-------|
A|0+------|0+--4---|2-2-----|-----22-|----0+--|--------|----2---|2-------|----2---|----2---|
E|----0-3-|--------|--------|--------|--------|--------|--------|----2---|--------|------4-|

                                   H                 H                   |: 4x            :|
G|--------|--------|--------|-----01-|--------|-----01-|--------|--------|--------|--------|
D|--------|--------|--------|--------|2---2---|0--2----|2---2---|0--2----|----2---|0--2----|
A|--------|--------|--------|--------|--------|--------|--------|------H-|--------|------H-|
E|0+------|--------|--------|--------|--------|--------|--------|-----34-|0-------|-----34-|

Refrain 4 :
G|--------|--------|--------|--------|--------|--------|--------|--------|
D|--------|------2-|--------|------2-|--------|------2-|--------|--------|
A|------2-|0-0-4---|----2-1-|0-0-4---|----2-1-|0-0-4---|----2-1-|0-0-4---|
E|0-0-4---|--------|0-0-----|--------|0-0-----|--------|0-0-----|------0-|

Pont 3 :
G|--------|--------|--------|--------|--------|--------|--------|--------|--------|--------|--------|--------|
D|--------|4-------|--------|--------|--------|4-------|----1-4-|------2-|--------|--------|--------|--------|
A|----4---|---4-43-|2-----0-|2-------|----4+--|---4-43-|2-2-----|0-0-4---|--------|------H-|--------|--------|
E|2-------|--------|----2---|----0-1-|2+------|--------|--------|--------|0+------|-----34-|0+------|--------|

Finale :
 |: 3x            :|                                                     |: 2x            :|
G|--------|--------|--------|--------|--------|--------|--------|--------|--------|--------|
D|--------|------2-|--------|------2-|--------|------2-|--------|------2-|--------|--------|
A|------2-|0-0-4---|----2---|0-0-4---|------2-|0-0-4---|----2---|0-0-4---|------2-|0-0-----|
E|0-0-4---|--------|0-0---4-|--------|0-0-4---|--------|0-----4-|--------|0---4---|----3-2-|

                                                                                            
                                                        >                                    
G|--------|--------|--------|--6-7-8-|9---9-6-|--------|--------|--------|--------|--------|--------|--------|--
D|--------|--------|--6-9-8-|7-------|--6-----|7-------|--6-9-8-|7-------|--------|--------|--------|--------|--
A|----2---|0-4-5-6-|7-------|--------|--------|--4-5-6-|7-------|--4-5-6-|7---2-4-|0-0-----|----2-4-|0-0-----|-- 
E|0-4---4-|--------|--------|--------|--------|--------|--------|--------|--4-----|----3-2-|0-4-----|----3-2-|0-

=========================================================================================================================
Légende : + = étouffer la corde (stopper le son)
          H = Hammer On (de la note qui se trouve juste sous le H)
          |: Nx :| = répéter N fois le passage entre |: et :|
          > = en diminuant le volume
=========================================================================================================================

Visitez http://www.ilovetabs.com pour d'autres tablatures "+R" pour guitare basse.

    
    

0 Commentaires : réagissez !

1 2 3 4 5
1 note
Notes pour Smiley Yeah Yeah Yeah Basse Tab - (Southern Culture On The Skids) | Slappyto : 3/5 sur 1 note
Aucun commentaire !

En Live

Wario a commenté le topic [videothèque des sons] de mr gone il y a 5 jours
Lebollos59 vient tout juste de rejoindre la communauté Slappyto. Bienvenue ! il y a 5 jours
GregRock vient tout juste de rejoindre la communauté Slappyto. Bienvenue ! il y a 6 jours
Chris927 vient tout juste de rejoindre la communauté Slappyto. Bienvenue ! il y a 1 semaine
Greeshma vient tout juste de rejoindre la communauté Slappyto. Bienvenue ! il y a 1 semaine
Ludo ZEFISH vient tout juste de rejoindre la communauté Slappyto. Bienvenue ! il y a 1 semaine
Nicobass1793 vient tout juste de rejoindre la communauté Slappyto. Bienvenue ! il y a 1 semaine
Indonesiae vient tout juste de rejoindre la communauté Slappyto. Bienvenue ! il y a 1 semaine
Grandbill a commenté la tablature de Coup_de_pelle il y a 1 semaine