ConnexionConnexionInscription
B E A D G
154 connectés Aller à Sweepyto Guitare

Chris Rea - On The Beach [ Artiste ]

Publié par le
07/11/2011
12709 vues
Débutant 3
http://www.youtube.com/watch?v=6X0FjlybCqs
    
        

****************************
* Chris Rea : On The Beach *
****************************

mesure = 4/4, tempo = 128, subdivision (-) = croche
suggestion de réglages :
    micro : 50% manche / 50% chevalet
    EQ = 50% bass / 50% mid / 50% treble

Intro :
 |: 12x  :|                                                                       |: 2x            :|
G|--------|--------|--------|--------|--------|--------|--------|--------|--------|--------|--------|
D|--------|--------|--------|--------|--------|--------|--------|--------|--------|----3---|--------|
A|--------|--------|--------|4-------|3-------|--------|--------|4------3|+-3-----|---3----|---43---|
E|--------|1-------|--------|--------|--------|1-------|--------|--------|--------|1------2|3------0|

Couplet :
 |: 5x            :|
G|--------|--------|--------|--------|--------|--------|----6---|--------|
D|----3---|--------|----3---|--------|--------|--------|---6----|--------|
A|---3----|---43---|---3----|---43---|1-------|3-------|4------5|6-------|
E|1------2|3------0|1------2|3-------|--------|--------|--------|--------|

Refrain :
G|--------|--------|--------|--------|--------|--------|--------|--------|
D|--------|--------|--------|--------|--------|--------|--------|--------|
A|--------|--------|4-------|3-------|--------|--------|4------3|+-3-----|
E|1-------|--------|--------|--------|1-------|--------|--------|--------|

Couplet

Refrain 2 :
 |: 3x                              :|
G|--------|--------|--------|--------|--------|--------|--------|--------|
D|--------|--------|--------|--------|--------|--------|--------|-------6|
A|--------|--------|4-------|3-------|--------|--------|4-4--4-3|--------|
E|1-------|--------|--------|--------|1-------|--------|--------|--------|

Pont :
 |: 3x            :|
G|--68--+-|--------|--68--+-|--------|
D|-6-----5|6------6|-6-----7|8--9A---|
A|4-------|---6----|4-------|--------|
E|--------|----4---|--------|--------|

Couplet 2 :
G|--------|--------|--------|--------|--------|--------|--------|--------|
D|----A---|--------|----A---|---A---A|----A---|--86--6-|--6---6-|5--5----|
A|8--8--89|A--A---A|8--8---8|A-------|8--8--8-|6-------|4--44---|----3---|
E|--------|----8---|--------|----8---|--------|----4---|--------|-------0|

G|--------|--------|--------|--------|--------|--------|----6---|--------|
D|----3---|--------|----3---|--------|--------|--------|---6----|--------|
A|---3---3|1-------|---3---3|3-------|1-------|3-------|4------5|6-------|
E|1-------|-------0|1-------|--------|--------|--------|--------|--------|

Refrain 3 :
 |: 4x                              :|
G|--------|--------|--------|--------|
D|--------|--------|--------|--------|
A|--------|--------|4-------|3-------|
E|1-------|--------|--------|-------0|

Finale :
G|--------|--------|--------|--------|--------|--------|--------|--------|--------|----
D|--------|--------|--------|--------|--------|--------|--------|--------|--------|----
A|--------|-----1-3|4-------|3-------|-3------|--------|4-------|3-------|--------|----
E|1-------|--------|--------|--------|1--31---|--------|--------|--------|1-------|----

=========================================================================================================================
Légende : A=10,B=11,C=12,...
          + = étouffer la corde (stopper le son)
          |: Nx :| = répéter N fois le passage entre |: et :|
=========================================================================================================================

Visitez http://www.ilovetabs.com pour d'autres tablatures "+R" pour guitare basse.

    
    

0 Commentaires : réagissez !

1 2 3 4 5
1 note
Notes pour On The Beach Basse Tab - (Chris Rea) | Slappyto : 3/5 sur 1 note
Aucun commentaire !

En Live

Wario a commenté le topic [videothèque des sons] de mr gone il y a 5 jours
Lebollos59 vient tout juste de rejoindre la communauté Slappyto. Bienvenue ! il y a 5 jours
GregRock vient tout juste de rejoindre la communauté Slappyto. Bienvenue ! il y a 6 jours
Chris927 vient tout juste de rejoindre la communauté Slappyto. Bienvenue ! il y a 1 semaine
Greeshma vient tout juste de rejoindre la communauté Slappyto. Bienvenue ! il y a 1 semaine
Ludo ZEFISH vient tout juste de rejoindre la communauté Slappyto. Bienvenue ! il y a 1 semaine
Nicobass1793 vient tout juste de rejoindre la communauté Slappyto. Bienvenue ! il y a 1 semaine
Indonesiae vient tout juste de rejoindre la communauté Slappyto. Bienvenue ! il y a 1 semaine
Grandbill a commenté la tablature de Coup_de_pelle il y a 1 semaine