ConnexionConnexionInscription
B E A D G
143 connectés Aller à Sweepyto Guitare

Eiffel - A tout moment la rue [ Artiste ]

Publié par le
30/11/2011
8188 vues
Débutant 1
http://www.youtube.com/watch?v=1wC7GVVkt90
    
        

Eiffel – A tout moment la rue
-----------------------------

Intro                            Couplet

G|-------|-------|-------|-------|-------|-------|-------|-------|
D|-------|-------|-------|-------|-------|-------|-------|-------|
A|-------|-------|4-4-4-4|4-4-4-4|4-4-4-4|4-4-4-4|4-4----|2-2-2-2|
E|-------|-------|-------|-------|-------|-------|----0-0|-------|

G|-------|-------|-------|-------|-------|-------|-------|-------|
D|-------|-------|-------|-------|-------|-------|-------|-------|
A|4-4-4-4|4-4-4-4|0-0----|4-4-4-4|0-0----|4-4-4-4|4-4-4-4|4-4-4-4|
E|-------|-------|----0-0|-------|----0-0|-------|-------|-------|

G|-------|-------|-------|-------|-------|-------|-------|-------|
D|-------|-------|-------|-------|-------|-------|-------|-------|
A|4-4----|2-2-2-2|4-4-4-4|4-4-4-4|0-0----|4-4-4-4|0-0----|4-4-4-4|
E|----0-0|-------|-------|-------|----0-0|-------|----0-0|-------|

G|-------|
D|------1|
A|4-4-4--|
E|-------|


Refrain

G|-------|-------|-------|-------|-------|-------|-------|-------|
D|2-2-2-2|-------|-------|-------|-------|-------|-------|-------|
A|-------|2-2-2-2|4-4-4-4|-------|0-0-0-0|-------|6-6-6-6|6-6-6-6|
E|-------|-------|-------|4-4-4-4|-------|0-0-0-0|-------|-------|


(Sifflement)                     Couplet

G|-------|-------|-------|-------|-------|-------|-------|-------|
D|-------|-------|-------|-------|-------|-------|-------|-------|
A|4-4-4-4|4-4-4-4|4-4----|2-2-2-2|4-4-4-4|4-4-4-4|4-4----|2-2-2-2|
E|-------|-------|----0-0|-------|-------|-------|----0-0|-------|
 
G|-------|-------|-------|-------|-------|-------|
D|-------|-------|-------|-------|-------|------1|
A|4-4-4-4|4-4-4-4|0-0----|4-4-4-4|0-0----|4-4-4--|
E|-------|-------|----0-0|-------|----0-0|-------|


Refrain

G|-------|-------|-------|-------|-------|-------|-------|-------|
D|2-2-2-2|-------|-------|-------|-------|-------|-------|-------|
A|-------|2-2-2-2|4-4-4-4|-------|0-0-0-0|-------|6-6-6-6|6-6-6-6|
E|-------|-------|-------|4-4-4-4|-------|0-0-0-0|-------|-------|


(Sifflement)

G|-------|-------|-------|-------|-------|-------|
D|-------|-------|-------|-------|-------|-------|
A|4-4-4-4|4-4-4-4|4-4----|2-2-2-2|4-4-4-4|4-4-4-4|
E|-------|-------|----0-0|-------|-------|-------|


Pont

G|-------|-------|-------|-------|
D|-------|-------|-------|-------|
A|0-0----|5-5-5-5|0-0-3-3|-------|
E|----0-0|-------|-------|2-2-2-2|


Refrain

G|-------|-------|-------|-------|-------|-------|-------|-------|
D|2-2-2-2|-------|-------|-------|-------|-------|-------|-------|
A|-------|2-2-2-2|4-4-4-4|-------|0-0-0-0|-------|6-6-6-6|6-6-6-6|
E|-------|-------|-------|4-4-4-4|-------|0-0-0-0|-------|-------|


Couplet final

G|-------|-------|-------|-------|-------|-------|-------|-------|
D|-------|-------|-------|-------|-------|-------|-------|-------|
A|4-4-4-4|4-4-4-4|4-4----|2-2-2-2|4-4-4-4|4-4-4-4|0-0----|4-4-4-4|
E|-------|-------|----0-0|-------|-------|-------|----0-0|-------|

G|-------|-------|-------|-------|-------|-------|-------|-------|
D|-------|-------|-------|-------|-------|-------|-------|-------|
A|0-0----|4-4-4-4|0-0----|4-4-4-4|0-0----|4-4-4-4|0-0----|4-4-4-4|
E|----0-0|-------|----0-0|-------|----0-0|-------|----0-0|-------|

G|-------|-------|-------|-------|-------|-------|-------|-------|
D|-------|-------|-------|-------|-------|-------|-------|-------|
A|0-0----|4-4-4-4|0-0----|4-4-4-4|0-0----|4-4-4-4|0-0----|4-4-4-4|
E|----0-0|-------|----0-0|-------|----0-0|-------|----0-0|-------|


20 novembre 2011

    
    

0 Commentaires : réagissez !

1 2 3 4 5
1 note
Notes pour A Tout Moment La Rue Basse Tab - (Eiffel) | Slappyto : 5/5 sur 1 note
Aucun commentaire !

En Live

Cell a commenté le topic ["recherche" Digitech bass synth wah] de Cell il y a 3 heures
Cell et yvesson ont commenté le topic [Le Topic du Freepost 7] de Vikie il y a 3 heures
Cell a commenté le topic ["recherche" Digitech bass synth wah] de Cell il y a 3 heures
Yvesson a commenté le topic [Amateurs de photographie, bon-jour/soir !] de cha0s-the0ry il y a 16 heures
Yvesson, sam et YannGGP ont commenté le topic [La mort de Slappyto?] de kurt il y a 16 heures
Glimmerkajal vient tout juste de rejoindre la communauté Slappyto. Bienvenue ! il y a 3 jours
Wario a commenté le topic [videothèque des sons] de mr gone il y a 1 semaine
Lebollos59 vient tout juste de rejoindre la communauté Slappyto. Bienvenue ! il y a 1 semaine
GregRock vient tout juste de rejoindre la communauté Slappyto. Bienvenue ! il y a 1 semaine
Chris927 vient tout juste de rejoindre la communauté Slappyto. Bienvenue ! il y a 2 semaines