ConnexionConnexionInscription
B E A D G
152 connectés Aller à Sweepyto Guitare

Calogero - En Apesanteur [ Artiste ]

Publié par le
30/11/2011
18219 vues
Moyen 1
    
        

1er couplet:  (J'arrive à me glisser ...)

G|-------------------------------------------------------------------------------------------|
D|-9-9-9-9-9-9-9-9-----------------------------------------11-11-11-11-11-11-11-11-----------|
A|-----------------9-9-9-9-9-9-9-9-12-12-12-12-12-12-12-12-----------------------------------|
E|-------------------------------------------------------------------------------------------|


G|-------------------------------------------------------------------------------------------|
D|-9-9-9-9-9-9-9-9---------------------------------------------------------------------------|
A|-----------------9-9-9-9-9-9-9-9-12-12-12-12-12-12-12-12-----------------------------------|
E|-------------------------------------------------------------------------------------------|

Et on enchaine vite le prè-refrain: Il faut le jouer 2 fois de suite
                                                                                              
G|-------9-8--9-----9-8--9-----9-8--9-------9-11-9-------------------------------------------| 
D|-11-11--------9-9--------------------------------------------------------------------------| 
A|-------------------------9-9--------11-11--------------------------------------------------| 
E|-------------------------------------------------------------------------------------------| x2

Là on doit arriver à : "en tête à tête avec un ange ..."


Ensuite, le refrain: (Aaah aaaaaah aaah aaah en apesanteur ...)
(On va dans les grave, et oui ^^)

G|-------------------------------------------------------------------------------------------|
D|-----------------------------------------9-----------9-------------------------------------|
A|--------------------------------------11---11-----11---11----------------------------------|
E|-2-2-2-2-2-2-2-2-7-7-7-7-7-7-7-7--9-9---------9-9------------------------------------------|

On enchaine vite:

G|-------------------------------------------------------------------------------------------|
D|-------------------------------------------------------------------------------------------|
A|-------------------------------------------------------------------------------------------|
E|-2-2-2-2-2-2-2-2-7-7-7-7-7-7-7-7-5-5-5-5-5-5-5-5-------------------------------------------|

    
    

En Live

Yvesson a commenté le topic [Le Topic du Freepost 7] de Vikie il y a 1 heure
Yvesson, sam et YannGGP ont commenté le topic [La mort de Slappyto?] de kurt il y a 1 heure
Glimmerkajal vient tout juste de rejoindre la communauté Slappyto. Bienvenue ! il y a 2 jours
Wario a commenté le topic [videothèque des sons] de mr gone il y a 1 semaine
Lebollos59 vient tout juste de rejoindre la communauté Slappyto. Bienvenue ! il y a 1 semaine
GregRock vient tout juste de rejoindre la communauté Slappyto. Bienvenue ! il y a 1 semaine
Chris927 vient tout juste de rejoindre la communauté Slappyto. Bienvenue ! il y a 2 semaines
Greeshma vient tout juste de rejoindre la communauté Slappyto. Bienvenue ! il y a 2 semaines